Battle Theme (Final Fantasy) Guitar Tab

Submitted: Feb 05, 2008 by Zelos (Last updated: Feb 05, 2008)

4.333335
Average: 4.3 (6 votes)
Download | Listen
Game: Final Fantasy
Composer(s): Nobuo Uematsu
Style: Arrangement
Series: Final Fantasy

AutoScroll: Slow | Medium | Fast
Battle Theme                                 
~Final Fantasy~
Composed by: Nobuo Uematsu
Arranged by: Zelos

BPM = 165

     H        E  T  T  T  T  T  T  T  T  T  T  T  T     E  H.           E   
E||-------------------------------------------------|--20------------------|
B||----------------13-16-13-16-13-13-16-13-16-13-17-|----------------------|
G||-------------------------------------------------|----------------------|
D||-------------------------------------------------|----------------------|
A||-------------------------------------------------|----------------------|
E||-------------------------------------------------|----------------------|


  H.           E   E       S S  S S H         E   E   
----------------------||-------10---9----------------|
----------------------||---8-----------------11--10--|
------------------10--||*----------------------------|
----------------------||*----------------------------|
----------------------||-----------------------------|
----------------------||-----------------------------|


  E  E  E   E   E  E   E   E     S S  S S Q.      E   S S  S S  
------------------------------|------10---9---------------13---|
--8-----8--10--11-----10------|--8---------------10--11--------|
--------------------------10--|--------------------------------|
------------------------------|--------------------------------|
------------------------------|--------------------------------|
------------------------------|--------------------------------|


   H.           E   E     S S  S S H         E   E   
--12-------------------|------10---9----------------|
-----------------------|--8-----------------11--10--|
-------------------10--|----------------------------|
-----------------------|----------------------------|
-----------------------|----------------------------|
-----------------------|----------------------------|


  E  E  E   E   E  E   E   E     S S  S S Q.      E   S S  S S  
------------------------------|------10---9---------------13---|
--8-----8--10--11-----10------|--8---------------10--11--------|
--------------------------10--|--------------------------------|
------------------------------|--------------------------------|
------------------------------|--------------------------------|
------------------------------|--------------------------------|


   W                   Q     Q.      Q.         Q    H.            
--12----------------|-------15------15------|--14-----------------|
--------------------|-------16------16------|--15-----------------|
--------------------|-----------------------|---------------------|
--------------------|-----------------------|---------------------|
--------------------|-----------------------|---------------------|
--------------------|-----------------------|---------------------|


  Q     Q.      Q.         Q    E   S  S  S  S  S  S  S  S S S  
-------15------15------|--14-----------------------------------|
-------16------16------|--15-------15-16-15--------------------|
-----------------------|--------------------17-15-14-12-11-8-7-|
-----------------------|---------------------------------------|
-----------------------|---------------------------------------|
-----------------------|---------------------------------------|


  Q     Q.      Q.         Q.      Q.      Q       Q     Q.      Q.      
-------10------11------|--13------11------10----|-----------------------|
-------11------13------|--15------13------11----|-------10------11------|
-----------------------|------------------------|-------11------12------|
-----------------------|------------------------|-----------------------|
-----------------------|------------------------|-----------------------|
-----------------------|------------------------|-----------------------|


   Q.      Q.      Q       Q     Q.      Q.         Q.      Q.      Q     
------------------------|-------10------11------|--13------11------10----|
--13------11------10----|-------11------13------|--15------13------11----|
--14------12------11----|-----------------------|------------------------|
------------------------|-----------------------|------------------------|
------------------------|-----------------------|------------------------|
------------------------|-----------------------|------------------------|


  Q     Q.      Q.         Q.      Q.      Q     
-----------------------|------------------------|
-------10------11------|--13------11------10----|
-------11------12------|--14------12------11----|
-----------------------|------------------------|
-----------------------|------------------------|
-----------------------|------------------------|


   E   S S  E   S S  E   S S  E   S S     E   S S  E   S S  E   S S  E   S S  
--15-------14-------15-------17-------|--18-------17-------18-------20-------|
------15-------15-------15-------18---|------18-------18-------18-------20---|
--------------------------------------|--------------------------------------|
--------------------------------------|--------------------------------------|
--------------------------------------|--------------------------------------|
--------------------------------------|--------------------------------------|


   S S  S S  S S  S E.   Q     S S     S E.   Q     Q     Q     
--22---22---22---22-----23----25---|--22-----------17----22----|
-----------------------------------|---------15----------------|
-----------------------------------|---------------------------|
-----------------------------------|---------------------------|
-----------------------------------|---------------------------|
-----------------------------------|---------------------------|


   S S  S S  S S  S E.   Q     S S  
--23---23---23---23-----25----27---|
-----------------------------------|
-----------------------------------|
-----------------------------------|
-----------------------------------|
-----------------------------------|


   S E.   S  S  S  S  S  S  S  S  S  S  S  S    
---------18-17-15-14-17-15-14-12-15-14-12-10--||
--27------------------------------------------||
---------------------------------------------*||
---------------------------------------------*||
----------------------------------------------||
----------------------------------------------||

Repeat until you're weary of it. ;)


Duration Legend
---------------
W - whole
H - half
Q - quarter
E - 8th
S - 16th
T - 32nd
. - note dotted
Login or Register to remove this ad.

3 comments on Battle Theme

Wow, all the way up to the

Wow, all the way up to the 27th fret.

There's a modified version

There's a modified version in the .zip. :)

Thanks very much for the

Thanks very much for the modified version.
My guitar only has 22 frets lol.