Airship (Final Fantasy) Bass Tab

Submitted: Feb 04, 2008 by Zelos (Last updated: May 07, 2008)

5
Average: 5 (1 vote)
Download | Listen
Game: Final Fantasy
Composer(s): Nobuo Uematsu
Style:
Series: Final Fantasy

AutoScroll: Slow | Medium | Fast
Airship                                 
~Final Fantasy~
Composed by: Nobuo Uematsu
Arranged by: Zelos

BPM = 165

     E  E  E  E  E  E  E  E     E  E  E  E  E  E  E  E   
G||-----5-----5-----3-----3--|-----5-----5-----3-----3--|
D||--3-----3-----1-----1-----|--3-----3-----1-----1-----|
A||--------------------------|--------------------------|
E||--------------------------|--------------------------|


  E  E  E  E  E  E  E  E     E  E  E  E  E  E  E  E   
-----5-----5-----3-----3--|-----5-----5-----3-----3--|
--3-----3-----1-----1-----|--3-----3-----1-----1-----|
--------------------------|--------------------------|
--------------------------|--------------------------|


  E  E  E  E  E  E  E  E     E  E  E  E  E  E  E  E   
-----5-----5-----3-----3--|-----5-----5-----3-----3--|
--3-----3-----1-----1-----|--3-----3-----1-----1-----|
--------------------------|--------------------------|
--------------------------|--------------------------|


  E  E  E  E  E  E  E  E     E  E  E  E  E  E  E  E   
-----5-----5-----3-----3--|-----5-----5-----3-----3--|
--3-----3-----1-----1-----|--3-----3-----1-----1-----|
--------------------------|--------------------------|
--------------------------|--------------------------|


  E  E  E  E  E  E  E  E     E  E  E  E  E  E  E  E   
--------------------------|--------------------------|
--------------------------|--------------------------|
-----8-----8-----6-----6--|-----8-----8-----6-----6--|
--6-----6-----4-----4-----|--6-----6-----4-----4-----|


  E  E  E  E  E  E  E  E     E  E  E  E  E  E  E  E     E  Q    E  E  Q    E   
--------------------------|--------------------------|--0--7----7-----8----8--|
--------------------------|--------------------------|-------------6----------|
-----8-----8-----6-----6--|-----8-----8-----6-----6--|------------------------|
--6-----6-----4-----4-----|--6-----6-----4-----4-----|------------------------|


  E  Q    E  E   Q     E      Q     Q    Q    Q       Q    Q    Q    Q     
-----7----7--6--10----10--|--12----10----9----7----|--5----3----2----0----|
--8-----------------------|------------------------|----------------------|
--------------------------|------------------------|----------------------|
--------------------------|------------------------|----------------------|


  E  E  E  E  E  E  E  E     E  E  E  E  E  E  E  E   
-----5-----5-----3-----3--|-----5-----5-----3-----3--|
--3-----3-----1-----1-----|--3-----3-----1-----1-----|
--------------------------|--------------------------|
--------------------------|--------------------------|


  E  E  E  E  E  E  E  E     E  E  E  E  E  E  E  E   
-----5-----5-----3-----3--|-----5-----5-----3-----3--|
--3-----3-----1-----1-----|--3-----3-----1-----1-----|
--------------------------|--------------------------|
--------------------------|--------------------------|


  E  E  E  E  E  E  E  E     E  E  E  E  E  E  E  E   
-----5-----5-----3-----3--|-----5-----5-----3-----3--|
--3-----3-----1-----1-----|--3-----3-----1-----1-----|
--------------------------|--------------------------|
--------------------------|--------------------------|


  E  E  E  E  E  E  E  E     E  E  E  E  E  E  E  E   
-----5-----5-----3-----3--|-----5-----5-----3-----3--|
--3-----3-----1-----1-----|--3-----3-----1-----1-----|
--------------------------|--------------------------|
--------------------------|--------------------------|


  E  E  E  E  E  E  E  E     E  E  E  E  E  E  E  E   
--------------------------|--------------------------|
--------------------------|--------------------------|
-----8-----8-----6-----6--|-----8-----8-----6-----6--|
--6-----6-----4-----4-----|--6-----6-----4-----4-----|


  E  E  E  E  E  E  E  E     E  E  E  E  E  E  E  E     E  Q    E  E  Q    E   
--------------------------|--------------------------|--0--7----7-----8----8--|
--------------------------|--------------------------|-------------6----------|
-----8-----8-----6-----6--|-----8-----8-----6-----6--|------------------------|
--6-----6-----4-----4-----|--6-----6-----4-----4-----|------------------------|


  E  Q    E  E   Q     E      Q     Q    Q    Q       Q    Q    Q    Q      
-----7----7--6--10----10--|--12----10----9----7----|--5----3----2----0----||
--8-----------------------|------------------------|----------------------||
--------------------------|------------------------|----------------------||
--------------------------|------------------------|----------------------||




Duration Legend
---------------
W - whole
H - half
Q - quarter
E - 8th
Login or Register to remove this ad.