Airship (Final Fantasy) Guitar Tab

Submitted: Feb 04, 2008 by Zelos (Last updated: Mar 24, 2008)

3.5
Average: 3.5 (2 votes)
Download | Listen
Game: Final Fantasy
Composer(s): Nobuo Uematsu
Style:
Series: Final Fantasy

AutoScroll: Slow | Medium | Fast
Airship                                 
~Final Fantasy~
Composed by: Nobuo Uematsu
Arranged by: Zelos

BPM = 165

      Q     Q     Q     Q        E   E   E   E   Q     E   E   
E||--------13----15----18----|--17--15--13--17--15------------|
B||--13----------------------|------------------------13--15--|
G||--------------------------|--------------------------------|
D||--------------------------|--------------------------------|
A||--------------------------|--------------------------------|
E||--------------------------|--------------------------------|


   Q.      H        E     W                    Q     Q     Q     Q     
-----------------------|-------------------|--------13----15----18----|
--16------13--------L--|--L----------------|--13----------------------|
-----------------------|-------------------|--------------------------|
-----------------------|-------------------|--------------------------|
-----------------------|-------------------|--------------------------|
-----------------------|-------------------|--------------------------|


   E   E   E   E   Q     E   E      Q.      H        E   
--17--15--13--17--15--------13--|--15------20-----------|
------------------------16------|-----------------------|
--------------------------------|-----------------------|
--------------------------------|-----------------------|
--------------------------------|-----------------------|
--------------------------------|-----------------------|


  H         S  S  S  S  S  S  S  S     E   E   E   E   E  E   E   E   
--------------------------15-17-18-|--18--16------18--16---------13--|
--------------------16-18----------|----------18-------------16------|
-----------15-17-19----------------|---------------------------------|
-----------------------------------|---------------------------------|
-----------------------------------|---------------------------------|
-----------------------------------|---------------------------------|


   E   E   E   E   E  Q.         E   E   E   E   E  E   E   E   
--18--16------18--16---------|--18--16------18--16---------13--|
----------18-----------------|----------18-------------16------|
-----------------------------|---------------------------------|
-----------------------------|---------------------------------|
-----------------------------|---------------------------------|
-----------------------------|---------------------------------|


   E   E   E   E   E  Q.         E   E   E   E   E  E   E   E   
--18--16------18--16---------|--15--13------15--13-------------|
----------18-----------------|----------15-------------13--15--|
-----------------------------|---------------------------------|
-----------------------------|---------------------------------|
-----------------------------|---------------------------------|
-----------------------------|---------------------------------|


   E   E   E   E   E  E   E   E      H         E   S  S  E   S  S  
--15--13------15--13-------------|----------------------15-----15-|
----------15-------------11--14--|--13--------17--13-17-----17----|
---------------------------------|--------------------------------|
---------------------------------|--------------------------------|
---------------------------------|--------------------------------|
---------------------------------|--------------------------------|


   W                    Q     Q     Q     Q     
--20----------------|--------13----15----18----|
--------------------|--13----------------------|
--------------------|--------------------------|
--------------------|--------------------------|
--------------------|--------------------------|
--------------------|--------------------------|


   E   E   E   E   Q     E   E      Q.      H        E     W                 
--17--15--13--17--15------------|-----------------------|-------------------|
------------------------13--15--|--16------13--------L--|--L----------------|
--------------------------------|-----------------------|-------------------|
--------------------------------|-----------------------|-------------------|
--------------------------------|-----------------------|-------------------|
--------------------------------|-----------------------|-------------------|


   Q     Q     Q     Q        E   E   E   E   Q     E   E   
--------13----15----18----|--17--15--13--17--15--------13--|
--13----------------------|------------------------16------|
--------------------------|--------------------------------|
--------------------------|--------------------------------|
--------------------------|--------------------------------|
--------------------------|--------------------------------|


   Q.      H        E     H         S  S  S  S  S  S  S  S  
--15------20-----------|--------------------------15-17-18-|
-----------------------|--------------------16-18----------|
-----------------------|-----------15-17-19----------------|
-----------------------|-----------------------------------|
-----------------------|-----------------------------------|
-----------------------|-----------------------------------|


   E   E   E   E   E  E   E   E      E   E   E   E   E  Q.      
--18--16------18--16---------13--|--18--16------18--16---------|
----------18-------------16------|----------18-----------------|
---------------------------------|-----------------------------|
---------------------------------|-----------------------------|
---------------------------------|-----------------------------|
---------------------------------|-----------------------------|


   E   E   E   E   E  E   E   E      E   E   E   E   E  Q.      
--18--16------18--16---------13--|--18--16------18--16---------|
----------18-------------16------|----------18-----------------|
---------------------------------|-----------------------------|
---------------------------------|-----------------------------|
---------------------------------|-----------------------------|
---------------------------------|-----------------------------|


   E   E   E   E   E  E   E   E      E   E   E   E   E  E   E   E   
--15--13------15--13-------------|--15--13------15--13-------------|
----------15-------------13--15--|----------15-------------11--14--|
---------------------------------|---------------------------------|
---------------------------------|---------------------------------|
---------------------------------|---------------------------------|
---------------------------------|---------------------------------|


   H         E   S  S  E   S  S     W                  
----------------------15-----15-|--20----------------||
--13--------17--13-17-----17----|--------------------||
--------------------------------|--------------------||
--------------------------------|--------------------||
--------------------------------|--------------------||
--------------------------------|--------------------||




Duration Legend
---------------
W - whole
H - half
Q - quarter
E - 8th
S - 16th


Tablature Legend
----------------
L - tied note
Login or Register to remove this ad.

1 comment on Airship

The only annoyance is that I

The only annoyance is that I play Acoustic and can't play it without alot of strain, but otherwise it's very good.