Amazon (Duck Tales) Bass Tab

Submitted: Nov 03, 2007 by Ice Climbers (Last updated: May 07, 2008)

0
Download | Listen
Game: Duck Tales
Composer(s): Yoshihiro Sakaguchi
Style: Transcription

AutoScroll: Slow | Medium | Fast
                                Game: Duck Tales 
                             Stage: Amazonas - bass
                      Tabbed by: Jonathan Sandberg Forsgren

                                    NOTE!!! 
         Sometimes you must ignore the timing! Just listen to the song! 

CONTACT:

www.myspace.com/iceclimbersrocks

[email protected]

------------------------------|-----------------------------------------------
------------------------------|-----------------------------------------------
------------------------------|-----------------------------------------------
-10-------------10------------|--10-------------------------------------9-10--
-----12-----10------12-----10-|------10---------7-10------12--10-10--10-------
---------10-------------10----|----------8-8--8-------10----------------------
          Intro                                                               

------------------------------------------------------------------------------
------------------------------------------------------------------------------
-------------------------------------------------------9--------------9-------
-10-------------------------------------------------10-------------10---------
-----10---------7-10------12------------9--11--12--------11-11--11------10----
---------8-8--8-------10------12-12--12---------------------------------------
                                                                              

----------------------------------------------------------|-------------------
----------------------------------------------------------|-------------------
----9-----------9-------------------------4---5---6---7---|---------9--12-----
-10----------10-------------------------------------------|--10--10-----------
------9-9--9------10-10---12-12---13-13-----2---3---4---5-|-------------------
----------------------------------------------------------|-------------------
                                                                              

------------------------------------------------------------------------------
------------------------------------------------------------------------------
-14---12-14--12----------------14---12-----12-11-12----14--12-14--12-14--14---
-----------------13p12--------------------------------------------------------
-----------------------15p14--------------------------------------------------
------------------------------------------------------------------------------
                                                                              

------------------------------------------------------------------------------
------------------------------------------------------------------------------
-12-17--14-12----------------------12-----------------------------------------
--------------14-13-12------------------15---14-------------------------------
-----------------------15-12--15----------------15-----------------12-15------
----------------------------------------------------15-13---13--13-------14---
                                                                              

------------------------------------------------------------------------------
------------------------------------------------------------------------------
-----------------17-----16----13--------13-14---------------------------------
----------------------------------------------14------------------------------
---------12-15-------15----14----13-12-----------16---------------------------
-14---14--------------------------------------------17-15-13-13---14-14-------
                                                                              

------------------------------------------------------------------------------
------------------------------------------------------------------------------
-----------------------------------12-13-14--12-------------------------------
------------------------------------------------14-12-------------------------
---------12---12-13-12-11--13--15---------------------------------------------
-15-15------------------------------------------------------------------------
Login or Register to remove this ad.