Ads

Castle (Dragon Quest I) Guitar Tab

Submitted: Apr 12, 2009 by auriplane (Last updated: Apr 12, 2009)

5
Average: 5 (1 vote)
Download | Listen
Game: Dragon Quest I
Composer(s): Koichi Sugiyama
Style: Transcription
Series: Dragon Quest

This song is also called Chateau Ladatorm

AutoScroll: Slow | Medium | Fast
                    Dragon Quest 1 - Castle GUITAR TAB
                         Song by Kouichi Sugiyama

                  Tabbed by auriplane ([email protected])


e |----------------|----------------|----------------|----------------|
B |----------------|----------------|----------------|----------------|
G |----9---7---9---|----9-------9---|----------------|----------------|
D |7---------------|10------9-------|7---------------|----------------|
A |----------------|----------------|----------------|----------------|
E |----------------|----------------|----------------|----------------|
                                                                     
e |----------------|----------------|----------------|----------------|
B |----------------|----------------|----------------|----------------|
G |----10--9---10--|7---10------10--|----------------|----------------|
D |0---------------|--------10------|9---------------|----------------|
A |----------------|----------------|----------------|----------------|
E |----------------|----------------|----------------|----------------|
                                                                     
e |----------------|----------------|----------------|----------------|
B |----8---6---8---|----8-------8---|6-------8-------|10------8---6---|
G |----------------|9-------6-------|----------------|----------------|
D |7---------------|----------------|----------------|----------------|
A |----------------|----------------|----------------|----------------|
E |----------------|----------------|----------------|----------------|
                                                                     
e |----------------|----------------|----------------|----------------|
B |----------------|----------------|----------------|----------------|
G |9-------5---9---|7-------8-------|9---------------|----------------|
D |----------------|----------------|----------------|----------------|
A |----------------|----------------|----------------|----------------|
E |----------------|----------------|----------------|----------------|
                                                                     
e |----------------|----------------|----------------|----------------|
B |---10-9-10------|----------------|---10-9-10------|----------------|
G |------------9-8-|9---------------|0-----------9-8-|9---------------|
D |7---------------|---10-9-10--7---|----------------|---10-9-10--7---|
A |----------------|----------------|----------------|----------------|
E |----------------|----------------|----------------|----------------|

e |----------------|----------------|----------------|----------------|
B |----------------|----------------|----------------|----------------|
G |----------------|10--------------|9---------------|9-------6---9---|
D |9-------10------|----7---10--7---|--------6---9---|----5-----------|
A |----10------10--|----------------|----7-----------|----------------|
E |----------------|----------------|----------------|----------------|

e |----------------|----------------|----------------|----------------|
B |---10-9-10------|----------------|---10-9-10------|----------------|
G |7-----------10-9|10--7-6-7-------|------------10-9|10--7-6-7-------|
D |----------------|------------7---|10--------------|------------7---|
A |----------------|----------------|----------------|----------------|
E |----------------|----------------|----------------|----------------|

e |----------------|----------------|----------------|----------------|
B |----------------|----------------|----------------|----------------|
G |----------------|10----------10--|9---------------|----------------|
D |9-------10------|----7---10------|----7---6-------|----------------|
A |----10------10--|----------------|------------8---|7---5-----------|
E |----------------|----------------|----------------|--------8---7---|

Login or Register to remove this ad.

1 comment on Castle

i like it, it reminds me of a

5

i like it, it reminds me of a classical song i wish i could remember the name of :)