Ads

Intro (Donkey Kong) Guitar Tab

Submitted: Mar 09, 2009 by nozzie (Last updated: Jan 15, 2010)

4.333335
Average: 4.3 (9 votes)
Download | Listen
Game: Donkey Kong
Style: Transcription
Series: Donkey Kong

AutoScroll: Slow | Medium | Fast
     E  E  Q    E  E  E  E   
E||-------------------------|
B||-------------------------|
G||--------2-------0--------|
D||-------------3-----3--0--|
A||--3--3-------------------|
E||-------------------------|


  Q    E  E  E  Q    E   
------------------------|
------------------------|
----------------3----0--|
-------0--0--0----------|
------------------------|
------------------------|


  E  E  Q    E  E  E  E   
-------------------------|
----------------------1--|
--2--0-------------------|
--------2-------2--2-----|
-------------------------|
-------------------------|


  E  E  E  E  H         
-----------------------|
--L--------1--3--------|
-----2--3--------------|
-----------------------|
-----------------------|
-----------------------|


  E  E  Q.     E  E  E   
------------------------|
------------------------|
-----0--2------------0--|
--3------------2--3-----|
------------------------|
------------------------|


  W                  
-------------------||
-------------------||
-------------------||
--3----------------||
-------------------||
-------------------||
Login or Register to remove this ad.

9 comments on Intro

not sounds like =S

1

srry it sucks =S

Well, either your guitar's

Well, either your guitar's out of tune, or ur doin' it wrong, because it sounds perfect to me.

Uhh...

Are you sure you're not trying to play the main level music?
This is the beginning of the game when you click one/two player. Press the Listen button to hear what it's supposed to sound like, too

Its am alright tab. ^_^

Its am alright tab. ^_^

Absolutely nothing wrong with

5

Absolutely nothing wrong with it. Perfect transcription.

Thanks! This Rocks!

5

Thanks! This Rocks!

What does the 'L' mean?

What does the 'L' mean?

a tied note.

a tied note.

Thankyou.

Thankyou.