Ads

Bases (Contra) Bass Tab

Submitted: Oct 31, 2007 by Ice Climbers (Last updated: Aug 18, 2014)

0
Download | Listen
Game: Contra
Composer(s): Club Kukeiha
Style: Transcription

AutoScroll: Slow | Medium | Fast
                         Game: Contra (Probotector) 
                         Stage: Second Stage - Bass
                  Tabbed by: Erik Lundmark, Nicklas Engberg

                                    NOTE!!! 
         Sometimes you must ignore the timing! Just listen to the song! 

CONTACT:

www.myspace.com/iceclimbersrocks

[email protected]

G-----------------------------------------------------------------------------
D--------------------------------------------------------8-10-----------------
A----------------------------9-8--6-8--6-8----9-11--9-8--------6-8--6-8-------
E-6---------------8-----------------------------------------------------------
                                                                              
G----------------------|---------|--------------------------------------------
D----------------------|---8----8|--------------------------------------------
A----------------------|---------|x8------------------------------------------
E-6---------------8----|9----10--|--------------------------------------------
Login or Register to remove this ad.