Jungle (Contra) Guitar Tab

Submitted: Sep 30, 2007 by morro (Last updated: Aug 18, 2014)

3.5
Average: 3.5 (2 votes)
Download | Listen
Game: Contra
Composer(s): Club Kukeiha
Style: 2 or more instruments, Transcription

AutoScroll: Slow | Medium | Fast
Transcribed by Aaron Morison ([email protected])
	



Gtr I (E A D G B E)
Gtr II (E A D G B E)
Gtr III (E A D G B E)

  Q=150
 4/4
  Gtr I
   S  S  S  S  S  S S S S S S S S S S S
|--8--6---------------------------------|
|--------8--6--8--6-4-3-4-3-1-----------|
|-----------------------------3-3---3-4-|
|---------------------------------5-----|
|---------------------------------------|
|---------------------------------------|
|
| Gtr II
|  S  S  S  S  S  S S S S S S S S S S S
|-13-11---------------------------------|
|-------13-11-13-11-9-8-9-8-6-4-6---4-5-|
|---------------------------------5-----|
|---------------------------------------|
|---------------------------------------|
|---------------------------------------|
|
| Gtr III
|  S  S  S  S  S  S S S S S S S S S S S
|--1------------------------------------|
|-----4--------1------------------------|
|--------5--3-----3-1-0-1-0-------------|
|---------------------------3-1-3---1-2-|
|---------------------------------3-----|
|---------------------------------------|


  Q.             E   E   S S +S   S  E
|--------------------3---1-3-(3)--4--6----|
|-----------------------------------------|
|-5---------------------------------------|
|-----------------------------------------|
|-----------------------------------------|
|-----------------------------------------|
|
| Q.             E   E   S S +S   S  E
|--------------------8---6-8-(8)-10-11----|
|-6---------------------------------------|
|-----------------------------------------|
|-----------------------------------------|
|-----------------------------------------|
|-----------------------------------------|
|
| S  S S S +S  S S S S S S S +S   S  S S
|-----------------------------------------|
|-----------------------------------------|
|-----------------------------------------|
|-----------------------------------------|
|-3--1-3-------------------6-(6)--6--5-6--|
|--------1-(1)-1-4-6-8-6-8----------------|


   +W                                  Q.             E   E   S S +S   S E
|--(6)------------------------------|---------------------3---1-3-(3)--5------|
|-----------------------------------|------------------------------------4----|
|-----------------------------------|--5--------------------------------------|
|-----------------------------------|-----------------------------------------|
|-----------------------------------|-----------------------------------------|
|-----------------------------------|-----------------------------------------|
|
|  +W                                  Q.             E   E   S S +S   S E
|-(11)------------------------------|---------------------8---6-8-(8)-10------|
|-----------------------------------|------------------------------------9----|
|-----------------------------------|-10--------------------------------------|
|-----------------------------------|-----------------------------------------|
|-----------------------------------|-----------------------------------------|
|-----------------------------------|-----------------------------------------|
|
|   S  S S S +S  S S S S S S S E. S    S  S S S +S  S S S S S S S +S   S S S
|-----------------------------------|-----------------------------------------|
|-----------------------------------|-----------------------------------------|
|-----------------------------------|-----------------------------------------|
|-----------------------------------|-----------------------------------------|
|------------------------6-5-6-5----|---------------------------6-(6)--6-5-6--|
|---8--6-8-1-(1)-4-6-8------------6-|--8--6-8-1-(1)-1-4-6-8-6-8---------------|


  +W                                  Q.             E   E   S S +S   S  E
|----------------------------------|---------------------3---1-3-(3)--4--6----|
|-(4)------------------------------|------------------------------------------|
|----------------------------------|--5---------------------------------------|
|----------------------------------|------------------------------------------|
|----------------------------------|------------------------------------------|
|----------------------------------|------------------------------------------|
|
| +W                                  Q.             E   E   S S +S   S  E
|----------------------------------|---------------------8---6-8-(8)-10-11----|
|-(9)------------------------------|------------------------------------------|
|----------------------------------|-10---------------------------------------|
|----------------------------------|------------------------------------------|
|----------------------------------|------------------------------------------|
|----------------------------------|------------------------------------------|
|
|  S  S S S +S  S S S S S S S E. S    S  S S S +S  S S S S S S S +S   S  S S
|----------------------------------|------------------------------------------|
|----------------------------------|------------------------------------------|
|----------------------------------|------------------------------------------|
|----------------------------------|------------------------------------------|
|-----------------------6-5-6-5----|---------------------------6-(6)--6--5-6--|
|--8--6-8-1-(1)-4-6-8------------6-|--8--6-8-1-(1)-1-4-6-8-6-8----------------|


   +W                                  Q.             E   E   S S +S   S E
|--(6)------------------------------|---------------------3---1-3-(3)--5------|
|-----------------------------------|------------------------------------4----|
|-----------------------------------|--5--------------------------------------|
|-----------------------------------|-----------------------------------------|
|-----------------------------------|-----------------------------------------|
|-----------------------------------|-----------------------------------------|
|
|  +W                                  Q.             E   E   S S +S   S E
|-(11)------------------------------|---------------------8---6-8-(8)-10------|
|-----------------------------------|------------------------------------9----|
|-----------------------------------|-10--------------------------------------|
|-----------------------------------|-----------------------------------------|
|-----------------------------------|-----------------------------------------|
|-----------------------------------|-----------------------------------------|
|
|   S  S S S +S  S S S S S S S E. S    S  S S S +S  S S S S S S S +S   S S S
|-----------------------------------|-----------------------------------------|
|-----------------------------------|-----------------------------------------|
|-----------------------------------|-----------------------------------------|
|-----------------------------------|-----------------------------------------|
|------------------------6-5-6-5----|---------------------------6-(6)--6-5-6--|
|---8--6-8-1-(1)-4-6-8------------6-|--8--6-8-1-(1)-1-4-6-8-6-8---------------|


  +W                                 S S E  S   E  S   S  S  E Q
|----------------------------------|-3---3------5------6-----6----------|
|-(4)------------------------------|------------------------------------|
|----------------------------------|------------------------------------|
|----------------------------------|------------------------------------|
|----------------------------------|------------------------------------|
|----------------------------------|------------------------------------|
|
| +W                                 S S E  S   E  S   S  S  E Q
|----------------------------------|-8---8-----10-----11----11----------|
|-(9)------------------------------|------------------------------------|
|----------------------------------|------------------------------------|
|----------------------------------|------------------------------------|
|----------------------------------|------------------------------------|
|----------------------------------|------------------------------------|
|
|  S  S S S +S  S S S S S S S E. S   Q      E.     S  +S  S  E S S S  S
|----------------------------------|------------------------------------|
|----------------------------------|------------------------------------|
|----------------------------------|------------------------------------|
|----------------------------------|---------------------------8-9---10-|
|-----------------------6-5-6-5----|------------------------10----------|
|--8--6-8-1-(1)-4-6-8------------6-|-8-----10-----11-(11)-8-------------|


   S S  E  S   E  S   S  S  E     S  E S
|--5----5------6------8-----8-----6--8-----|
|------------------------------------------|
|------------------------------------------|
|------------------------------------------|
|------------------------------------------|
|------------------------------------------|
|
|  S S  E  S   E  S   S  S  E     S  E S
|-10---10-----11-----13----13----11-13-----|
|------------------------------------------|
|------------------------------------------|
|------------------------------------------|
|------------------------------------------|
|------------------------------------------|
|
|  Q       E.     S  +E.       S  Q
|------------------------------------------|
|------------------------------------------|
|------------------------------------------|
|------------------------------------------|
|------------------------------------------|
|-10------11-----13-(13)------11-13--------|


   S S  E S   E S  S  S  E Q           S S  E  S   E  S   Q    Q
|-----------------------------------|-------------------------13--|
|--8----8----10---11----11----------|-10---10-----11-----13-------|
|-----------------------------------|-----------------------------|
|-----------------------------------|-----------------------------|
|-----------------------------------|-----------------------------|
|-----------------------------------|-----------------------------|
|
|  S S  E S   E S  S  S  E Q           S S  E  S   E  S   Q    Q
|-----------------------------------|-------------------------18--|
|-13---13----15---16----16----------|-15---15-----16-----18-------|
|-----------------------------------|-----------------------------|
|-----------------------------------|-----------------------------|
|-----------------------------------|-----------------------------|
|-----------------------------------|-----------------------------|
|
|  Q      E.    S +S  S  E S S S  S    Q       E.     S  +Q    Q
|-----------------------------------|-----------------------------|
|-----------------------------------|-----------------------------|
|-----------------------------------|-----------------------------|
|--------------------------8-9---10-|-----------------------------|
|--3------5-----6-(6)---10----------|-------------------------13--|
|---------------------8-------------|-10------11-----13-(13)------|


   S  S  S  S  S  S  S  S  S  S  S  S  S  S  S  S
|-15-13-15-13-22-20-18-17-15-13-15-13-------------|
|-------------------------------------15-13-15-13-|
|-------------------------------------------------|
|-------------------------------------------------|
|-------------------------------------------------|
|-------------------------------------------------|
|
|  S  S  S  S  S  S  S  S  S  S  S  S  S  S  S  S
|-18-17-22-20-18-17-15-13-15-13-------------------|
|-------------------------------15-13-15-13-11-10-|
|-------------------------------------------------|
|-------------------------------------------------|
|-------------------------------------------------|
|-------------------------------------------------|
|
|  S  S  S  S  S  S  S  S  S  S  S  S  S  S  S  S
|-------10--8--6--5--3--1--3--1-------------------|
|--------------------------------3--1--3--1-------|
|-12-10--------------------------------------3--2-|
|-------------------------------------------------|
|-------------------------------------------------|
|-------------------------------------------------|


   Q   S   E  S  E     E     S  E    S
|--------------------------------------|
|--------------------------------------|
|--------------------------------------|
|---------------17----15----13-12------|
|---------17-18---------------------13-|
|-15--15-------------------------------|
|
|  Q   S   E  S  E     E     S  E    S
|--------------------------------------|
|--------------------------------------|
|---------------12----10-----8--7------|
|-10--10--12-13----------------------8-|
|--------------------------------------|
|--------------------------------------|
|
|  Q   E.     S  S  S  S  S  S  S S  S
|--------------------------------------|
|--------------------------------------|
|--------------------------------------|
|--------------------------------------|
|--3---5------6-----------------1----2-|
|----------------8-10----11--3---------|


   S S S S S E S   E  S S   S   E    S    Q   S  E S  Q   S  E S
|--------------------------------------|-------------------------|
|--------------------------------------|-------------------------|
|--------------------------------------|-------------------------|
|--------------------------------------|-------------------------|
|--3-3-3---3-5-----6--------8--10------|--8--10-12---13--15-17---|
|-----------------------8--------------|-------------------------|
|
|  H              +Q       +S   S  E      Q   S  E S  Q   S  E S
|--------------------------------------|-------------------------|
|--------------------------------------|-------------------------|
|--------------------------------------|-------------------------|
|-10-------------(10)-----(10)---------|-------------------------|
|--------------------------------------|-12--13-15---17--18-20---|
|--------------------------------------|-------------------------|
|
|  E   E   Q       E.   S  +E      E      H           H
|--------------------------------------|-------------------------|
|--------------------------------------|-------------------------|
|--------------------------------------|-------------------------|
|--------------------------------------|-------------------------|
|--3---3---5-------6----8--(8)----10---|--8----------------------|
|--------------------------------------|--------------6----------|


   Q   S  E  S  Q   S  S  S  S    S  S  S  S  +S   S  S  S  E  S  S  S  E  S
|------------------------------|---------------------------------------------|
|------------------------------|---------------------------------------------|
|------------------------------|---------------------------------------------|
|--------------20--19----------|------------------------------20-19-20-19----|
|-18--18-20-22-----------18-20-|-22-20-22------------18-20-22-------------20-|
|---------------------20-------|----------20-(20)-20-------------------------|
|
|  Q   S  E  S  Q   S  S  S  S    W
|------------6-10---8----------|---------------------------------------------|
|----------------------------6-|---------------------------------------------|
|-------------------------8----|---------------------------------------------|
|---------------------10-------|---------------------------------------------|
|-22--22-24--------------------|---------------------------------------------|
|------------------------------|---------------------------------------------|
|
|  H            Q   S  S  S  S    W
|------------------------------|---------------------------------------------|
|------------------------------|---------------------------------------------|
|------------------------------|---------------------------------------------|
|------------------------------|---------------------------------------------|
|--6-------------------0--1--2-|--3------------------------------------------|
|---------------3---1----------|---------------------------------------------|


   S  S  S  S  +S   S  S  S  E   S  S  S   E    S
|-------------------------------------------------|
|-------------------------------------------------|
|-------------------------------------------------|
|-------------------------------20-19-20--22---24-|
|-22-20-22------------18-20-22--------------------|
|----------20-(20)-20-----------------------------|
|
|  H                        +Q        +S   S E
|-------------------------------------------------|
|--8------------------------(8)-------(8)---------|
|-------------------------------------------------|
|-------------------------------------------------|
|-------------------------------------------------|
|-------------------------------------------------|
|
|  W
|-------------------------------------------------|
|-------------------------------------------------|
|-------------------------------------------------|
|--1----------------------------------------------|
|-------------------------------------------------|
|-------------------------------------------------|


  Q  S  E S  Q   S  E S    S  S  E  S  E  S  Q   Q
|-----------------------|---------------------------|
|-----------------------|---------------------------|
|-----------------------|-------------------15--14--|
|-3--5--7----8--10-12---|-13-13-13-13-15-17---------|
|-----------------------|---------------------------|
|-----------------------|---------------------------|
|
| Q  S  E S  Q   S  E S    S  S  E  S  E  S  Q   Q
|-----------------------|---------------------------|
|-----------------------|---------------------------|
|-----------------------|-------------------19--17--|
|-7--8-10---12--13-15---|-17-17-17-17-19-20---------|
|-----------------------|---------------------------|
|-----------------------|---------------------------|
|
| H          H             Q        S  E  S  Q   Q
|-----------------------|---------------------------|
|-----------------------|---------------------------|
|-----------------------|--------------------0------|
|-3---------------------|--1--------1--3--1------3--|
|------------1----------|---------------------------|
|-----------------------|---------------------------|


   S   S  S  S S  S  S  S  S  S  S S  Q
|----------------------------------------|
|----------------------------------------|
|-12--12-12-12---12-12-12-12----12---10--|
|----------------------------------------|
|----------------------------------------|
|----------------------------------------|
|
|  S   S  S  S S  S  S  S  S  S  S S  Q
|----------------------------------------|
|----------------------------------------|
|-15--15-15-15---15-15-15-15----15---14--|
|----------------------------------------|
|----------------------------------------|
|----------------------------------------|
|
|  Q.                E    +E     E    Q
|----------------------------------------|
|----------------------------------------|
|----------------------------------------|
|--5-----------------5----(5)----5----3--|
|----------------------------------------|
|----------------------------------------|


   S   S  S  S S  S  S  S  S  S  S S  Q
|----------------------------------------|
|-------------------------------------6--|
|--8---8--8--8----8--8--8--8-----8-------|
|----------------------------------------|
|----------------------------------------|
|----------------------------------------|
|
|  S   S  S  S S  S  S  S  S  S  S S  Q
|----------------------------------------|
|------------------------------------10--|
|-12--12-12-12---12-12-12-12----12-------|
|----------------------------------------|
|----------------------------------------|
|----------------------------------------|
|
|  Q.                E    +E     E    Q
|----------------------------------------|
|----------------------------------------|
|----------------------------------------|
|--1-----------------1----(1)----1----3--|
|----------------------------------------|
|----------------------------------------|


   S   S  S  S S  S  S  S  S  S  S S  Q    S S S S S S  S  S  S  S  S S  Q
|----------------------------------------|----------------------------------|
|--8---8--8--8----8--8--8--8-----8----6--|-4-4-4-4---4--6--8-10-11-10-------|
|----------------------------------------|------------------------------10--|
|----------------------------------------|----------------------------------|
|----------------------------------------|----------------------------------|
|----------------------------------------|----------------------------------|
|
|  S   S  S  S S  S  S  S  S  S  S S  Q    S S S S S S  S  S  S  S  S S  Q
|----------------------------------------|----------------------------------|
|-11--11-11-11---11-11-11-11----11---10--|-8-8-8-8---8-10-11-13-15-13-------|
|----------------------------------------|------------------------------14--|
|----------------------------------------|----------------------------------|
|----------------------------------------|----------------------------------|
|----------------------------------------|----------------------------------|
|
|  Q.                E    +E     E    Q    Q       S S  S  S  S  S  E    Q
|----------------------------------------|----------------------------------|
|----------------------------------------|----------------------------------|
|----------------------------------------|----------------------------------|
|--5-----------------5----(5)----5----3--|-1---------1--3--5--7--8--7-------|
|----------------------------------------|-------------------------------8--|
|----------------------------------------|----------------------------------|


   S   S  S  S S  S  S  S   S  S  S S  Q
|-----------------------------------------|
|-11--11-11-11---11-11-11--11----11---10--|
|-----------------------------------------|
|-----------------------------------------|
|-----------------------------------------|
|-----------------------------------------|
|
|  S   S  S  S S  S  S  S   S  S  S S  Q
|-----------------------------------------|
|-15--15-15-15---15-15-15--15----15---13--|
|-----------------------------------------|
|-----------------------------------------|
|-----------------------------------------|
|-----------------------------------------|
|
|  Q.                E     +E     E    Q
|-----------------------------------------|
|-----------------------------------------|
|-----------------------------------------|
|-----------------------------------------|
|-10----------------10----(10)---10----8--|
|-----------------------------------------|


   S   S  S  S S  S  S  S  S  S  S S  Q
|----------------------------------------|
|--8---8--8--8----8--8--8--8-----8---10--|
|----------------------------------------|
|----------------------------------------|
|----------------------------------------|
|----------------------------------------|
|
|  S   S  S  S S  S  S  S  S  S  S S  Q
|----------------------------------------|
|-11--11-11-11---11-11-11-11----11---13--|
|----------------------------------------|
|----------------------------------------|
|----------------------------------------|
|----------------------------------------|
|
|  Q.                E    +E     E    Q
|----------------------------------------|
|----------------------------------------|
|----------------------------------------|
|----------------------------------------|
|--6-----------------6----(6)----6----8--|
|----------------------------------------|


   S   S  S  S S  S  S  S   S  S  S S  Q
|-----------------------------------------|
|-11--11-11-11---11-11-11--11----10---11--|
|-----------------------------------------|
|-----------------------------------------|
|-----------------------------------------|
|-----------------------------------------|
|
|  S   S  S  S S  S  S  S   S  S  S S  Q
|-----------------------------------------|
|-15--15-15-15---15-15-15--15----15---16--|
|-----------------------------------------|
|-----------------------------------------|
|-----------------------------------------|
|-----------------------------------------|
|
|  Q.                E     +E     E    Q
|-----------------------------------------|
|-----------------------------------------|
|-----------------------------------------|
|--------------------------------------8--|
|-10----------------10----(10)---10-------|
|-----------------------------------------|


   S   S  S  S S  S  S  S  S  S E S  S  S  S
|--------------------------------------------|
|-13--13-13-13---13-13-13-13-----------------|
|--------------------------------------------|
|--------------------------------------------|
|--------------------------------------15-17-|
|-----------------------------------15-------|
|
|  S   S  S  S S  S  S  S  S  S E S  S  S  S
|--------------------------------------------|
|-18--18-18-18---18-18-18-18-----------------|
|--------------------------------------------|
|--------------------------------------------|
|--------------------------------------18-20-|
|-----------------------------------20-------|
|
|  Q.                E    +E    E Q
|--------------------------------------------|
|--------------------------------------------|
|--------------------------------------------|
|--------------------------------------------|
|--8-----------------8----(8)----------------|
|--------------------------------------------|


   S  S  S  S  +S   S  S  S  S  S  S  S  +S   S  S  S
|-----------------------------------------------------|
|-----------------------------------------------------|
|-----------------------------------------------------|
|------------------------------------17-(17)-17-15-17-|
|-18-17-18------------15-17-18-17-18------------------|
|----------15-(15)-15---------------------------------|
|
|  S  S  S  S  +S   S  S  S  S  S  S  S  +S   S  S  S
|-----------------------------------------------------|
|-----------------------------------------------------|
|-----------------------------------------------------|
|------------------------------------20-(20)-20-19-20-|
|-22-20-22------------18-20-22-20-22------------------|
|----------20-(20)-20---------------------------------|


   S  S  S  S  +S   S  S  S S  S S  S S  E.
|--------------------------------------------|
|--------------------------------------------|
|--------------------------------------------|
|--------------------------------------------|
|-18-17-18------------15-17---18---20---22---|
|----------15-(15)-15------------------------|
|
|  S  S  S  S  +S   S  S  S S  S S  S S  E.
|----------------------------------------6---|
|--------------------------------------------|
|--------------------------------------------|
|--------------------------------------------|
|-22-20-22------------18-20---22---24--------|
|----------20-(20)-20------------------------|


   Q.             E    E    S  S  +S   S  E
|---------------------------------------------|
|---------------------------------------------|
|---------------------------------------------|
|----------------------------------------20---|
|---------------------22---20-22-(22)-23------|
|-20------------------------------------------|
|
|  Q.             E    E    S  S  +S   S  E
|----------------------8----6--8--(8)-10-11---|
|--6------------------------------------------|
|---------------------------------------------|
|---------------------------------------------|
|---------------------------------------------|
|---------------------------------------------|
|
| Gtr III
|  S  S S S +S  S S S  S S  S  S  +S   S  S S
|---------------------------------------------|
|---------------------------------------------|
|---------------------------------------------|
|---------------------------------------------|
|------------------------------6--(6)--6--5-6-|
|--8--6-8-1-(1)-1-4-6--8-6--8-----------------|


   +W
|------------------------------------|
|------------------------------------|
|------------------------------------|
|-(20)-------------------------------|
|------------------------------------|
|------------------------------------|
|
|  +W
|-(11)-------------------------------|
|------------------------------------|
|------------------------------------|
|------------------------------------|
|------------------------------------|
|------------------------------------|
|
|   S  S S S +S  S S S S S S S E. S
|------------------------------------|
|------------------------------------|
|------------------------------------|
|------------------------------------|
|------------------------6-5-6-5-----|
|---8--6-8-1-(1)-4-6-8------------6--|


   Q.             E    E    S  S  +S   S  E
|---------------------------------------------|
|---------------------------------------------|
|---------------------------------------------|
|---------------------------------------------|
|---------------------22---20-22-(22)-24------|
|-20-------------------------------------23---|
|
|  Q.             E    E    S  S  +S   S  E
|----------------------8----6--8--(8)-10------|
|-----------------------------------------9---|
|-10------------------------------------------|
|---------------------------------------------|
|---------------------------------------------|
|---------------------------------------------|
|
|  S  S S S +S  S S S  S S  S  S  +S   S  S S
|---------------------------------------------|
|---------------------------------------------|
|---------------------------------------------|
|---------------------------------------------|
|------------------------------6--(6)--6--5-6-|
|--8--6-8-1-(1)-1-4-6--8-6--8-----------------|


   +W
|------------------------------------|
|------------------------------------|
|------------------------------------|
|------------------------------------|
|------------------------------------|
|-(23)-------------------------------|
|
|  +W
|------------------------------------|
|--(9)-------------------------------|
|------------------------------------|
|------------------------------------|
|------------------------------------|
|------------------------------------|
|
|   S  S S S +S  S S S S S S S E. S
|------------------------------------|
|------------------------------------|
|------------------------------------|
|------------------------------------|
|------------------------6-5-6-5-----|
|---8--6-8-1-(1)-4-6-8------------6--|


   Q.             E    E    S  S  +S   S  E
|---------------------------------------------|
|---------------------------------------------|
|---------------------------------------------|
|----------------------------------------20---|
|---------------------22---20-22-(22)-23------|
|-20------------------------------------------|
|
|  Q.             E    E    S  S  +S   S  E
|----------------------8----6--8--(8)-10-11---|
|---------------------------------------------|
|-10------------------------------------------|
|---------------------------------------------|
|---------------------------------------------|
|---------------------------------------------|
|
|  S  S S S +S  S S S  S S  S  S  +S   S  S S
|---------------------------------------------|
|---------------------------------------------|
|---------------------------------------------|
|---------------------------------------------|
|------------------------------6--(6)--6--5-6-|
|--8--6-8-1-(1)-1-4-6--8-6--8-----------------|


   +W
|------------------------------------|
|------------------------------------|
|------------------------------------|
|-(20)-------------------------------|
|------------------------------------|
|------------------------------------|
|
|  +W
|-(11)-------------------------------|
|------------------------------------|
|------------------------------------|
|------------------------------------|
|------------------------------------|
|------------------------------------|
|
|   S  S S S +S  S S S S S S S E. S
|------------------------------------|
|------------------------------------|
|------------------------------------|
|------------------------------------|
|------------------------6-5-6-5-----|
|---8--6-8-1-(1)-4-6-8------------6--|


   Q.             E    E    S  S  +S   S  E
|---------------------------------------------|
|---------------------------------------------|
|---------------------------------------------|
|---------------------------------------------|
|---------------------22---20-22-(22)-24------|
|-20-------------------------------------23---|
|
|  Q.             E    E    S  S  +S   S  E
|----------------------8----6--8--(8)-10------|
|-----------------------------------------9---|
|-10------------------------------------------|
|---------------------------------------------|
|---------------------------------------------|
|---------------------------------------------|
|
|  S  S S S +S  S S S  S S  S  S  +S   S  S S
|---------------------------------------------|
|---------------------------------------------|
|---------------------------------------------|
|---------------------------------------------|
|------------------------------6--(6)--6--5-6-|
|--8--6-8-1-(1)-1-4-6--8-6--8-----------------|


   +W
|------------------------------------|
|------------------------------------|
|------------------------------------|
|------------------------------------|
|------------------------------------|
|-(23)-------------------------------|
|
|  +W
|------------------------------------|
|--(9)-------------------------------|
|------------------------------------|
|------------------------------------|
|------------------------------------|
|------------------------------------|
|
|   S  S S S +S  S S S S S S S E. S
|------------------------------------|
|------------------------------------|
|------------------------------------|
|------------------------------------|
|------------------------6-5-6-5-----|
|---8--6-8-1-(1)-4-6-8------------6--|


   S S  E  S   E  S   S  S  E Q
|---------------------6-----6----------|
|--------------------------------------|
|--------------------------------------|
|--------------------------------------|
|-22---22-----24-----------------------|
|--------------------------------------|
|
|  S S  E  S   E  S   S  S  E Q
|--8----8-----10-----11----11----------|
|--------------------------------------|
|--------------------------------------|
|--------------------------------------|
|--------------------------------------|
|--------------------------------------|
|
|  Q       E.     S  +S  S  E S S S  S
|--------------------------------------|
|--------------------------------------|
|--------------------------------------|
|-----------------------------8-9---10-|
|--------------------------10----------|
|--8------10-----11-(11)-8-------------|


   S S  E  S   E  S   S  S  E     S  E S    S S  E S   E S  S  S  E Q
|--5----5------6------8-----8-----6--8---|-----------------------------------|
|----------------------------------------|--8----8----10---11----11----------|
|----------------------------------------|-----------------------------------|
|----------------------------------------|-----------------------------------|
|----------------------------------------|-----------------------------------|
|----------------------------------------|-----------------------------------|
|
|  S S  E  S   E  S   S  S  E     S  E S    S S  E S   E S  S  S  E Q
|-10---10-----11-----13----13----11-13---|-----------------------------------|
|----------------------------------------|-13---13----15---16----16----------|
|----------------------------------------|-----------------------------------|
|----------------------------------------|-----------------------------------|
|----------------------------------------|-----------------------------------|
|----------------------------------------|-----------------------------------|
|
|  Q       E.     S  +E.       S  Q         Q      E.    S +S  S  E S S S  S
|----------------------------------------|-----------------------------------|
|----------------------------------------|-----------------------------------|
|----------------------------------------|-----------------------------------|
|----------------------------------------|--------------------------8-9---10-|
|----------------------------------------|--3------5-----6-(6)---10----------|
|-10------11-----13-(13)------11-13------|---------------------8-------------|


   S S  E  S   E  S   Q    Q     S  S  S  S  S  S  S  S  S  S  S  S  S  S  S  S
|-------------------------13--|-15-13-15-13-22-20-18-17-15-13-15-13-------------|
|-10---10-----11-----13-------|-------------------------------------15-13-15-13-|
|-----------------------------|-------------------------------------------------|
|-----------------------------|-------------------------------------------------|
|-----------------------------|-------------------------------------------------|
|-----------------------------|-------------------------------------------------|
|
|  S S  E  S   E  S   Q    Q     S  S  S  S  S  S  S  S  S  S  S  S  S  S  S  S
|-------------------------18--|-18-17-22-20-18-17-15-13-15-13-------------------|
|-15---15-----16-----18-------|-------------------------------15-13-15-13-11-10-|
|-----------------------------|-------------------------------------------------|
|-----------------------------|-------------------------------------------------|
|-----------------------------|-------------------------------------------------|
|-----------------------------|-------------------------------------------------|
|
|  Q       E.     S  +Q    Q     S  S  S  S  S  S  S  S  S  S  S  S  S  S  S  S
|-----------------------------|-------10--8--6--5--3--1--3--1-------------------|
|-----------------------------|--------------------------------3--1--3--1-------|
|-----------------------------|-12-10--------------------------------------3--2-|
|-----------------------------|-------------------------------------------------|
|-------------------------13--|-------------------------------------------------|
|-10------11-----13-(13)------|-------------------------------------------------|


   Q   S   E  S  E     E     S  E    S
|--------------------------------------|
|--------------------------------------|
|--------------------------------------|
|---------------17----15----13-12------|
|---------17-18---------------------13-|
|-15--15-------------------------------|
|
|  Q   S   E  S  E     E     S  E    S
|--------------------------------------|
|--------------------------------------|
|---------------12----10-----8--7------|
|-10--10--12-13----------------------8-|
|--------------------------------------|
|--------------------------------------|
|
|  Q   E.     S  S  S  S  S  S  S S  S
|--------------------------------------|
|--------------------------------------|
|--------------------------------------|
|--------------------------------------|
|--3---5------6-----------------1----2-|
|----------------8-10----11--3---------|


   S S S S S E S   E  S S   S   E    S
|--------------------------------------|
|--------------------------------------|
|--------------------------------------|
|--------------------------------------|
|--3-3-3---3-5-----6--------8--10------|
|-----------------------8--------------|
|
|  H              +Q       +S   S  E
|--------------------------------------|
|--------------------------------------|
|--------------------------------------|
|-10-------------(10)-----(10)---------|
|--------------------------------------|
|--------------------------------------|
|
|  E   E   Q       E.   S  +E      E
|--------------------------------------|
|--------------------------------------|
|--------------------------------------|
|--------------------------------------|
|--3---3---5-------6----8--(8)----10---|
|--------------------------------------|


   Q   S  E S  Q   S  E S    Q   S  E  S  Q   S  S  S  S
|-------------------------|------------------------------|
|-------------------------|------------------------------|
|-------------------------|------------------------------|
|-------------------------|--------------20--19----------|
|--8--10-12---13--15-17---|-18--18-20-22-----------18-20-|
|-------------------------|---------------------20-------|
|
|  Q   S  E S  Q   S  E S    Q   S  E  S  Q   S  S  S  S
|-------------------------|------------6-10---8----------|
|-------------------------|----------------------------6-|
|-------------------------|-------------------------8----|
|-------------------------|---------------------10-------|
|-12--13-15---17--18-20---|-22--22-24--------------------|
|-------------------------|------------------------------|
|
|  H           H             H            Q   S  S  S  S
|-------------------------|------------------------------|
|-------------------------|------------------------------|
|-------------------------|------------------------------|
|-------------------------|------------------------------|
|--8----------------------|--6-------------------0--1--2-|
|--------------6----------|---------------3---1----------|


   S  S  S  S  +S   S  S  S  E  S  S  S  E  S
|---------------------------------------------|
|---------------------------------------------|
|---------------------------------------------|
|------------------------------20-19-20-19----|
|-22-20-22------------18-20-22-------------20-|
|----------20-(20)-20-------------------------|
|
|  W
|---------------------------------------------|
|---------------------------------------------|
|---------------------------------------------|
|---------------------------------------------|
|---------------------------------------------|
|---------------------------------------------|
|
|  W
|---------------------------------------------|
|---------------------------------------------|
|---------------------------------------------|
|---------------------------------------------|
|--3------------------------------------------|
|---------------------------------------------|


   S  S  S  S  +S   S  S  S  E   S  S  S   E    S
|-------------------------------------------------|
|-------------------------------------------------|
|-------------------------------------------------|
|-------------------------------20-19-20--22---24-|
|-22-20-22------------18-20-22--------------------|
|----------20-(20)-20-----------------------------|
|
|  H                        +Q        +S   S E
|-------------------------------------------------|
|--8------------------------(8)-------(8)---------|
|-------------------------------------------------|
|-------------------------------------------------|
|-------------------------------------------------|
|-------------------------------------------------|
|
|  W
|-------------------------------------------------|
|-------------------------------------------------|
|-------------------------------------------------|
|--1----------------------------------------------|
|-------------------------------------------------|
|-------------------------------------------------|


  Q  S  E S  Q   S  E S    S  S  E  S  E  S  Q   Q
|-----------------------|---------------------------|
|-----------------------|---------------------------|
|-----------------------|-------------------15--14--|
|-3--5--7----8--10-12---|-13-13-13-13-15-17---------|
|-----------------------|---------------------------|
|-----------------------|---------------------------|
|
| Q  S  E S  Q   S  E S    S  S  E  S  E  S  Q   Q
|-----------------------|---------------------------|
|-----------------------|---------------------------|
|-----------------------|-------------------19--17--|
|-7--8-10---12--13-15---|-17-17-17-17-19-20---------|
|-----------------------|---------------------------|
|-----------------------|---------------------------|
|
| H          H             Q        S  E  S  Q   Q
|-----------------------|---------------------------|
|-----------------------|---------------------------|
|-----------------------|--------------------0------|
|-3---------------------|--1--------1--3--1------3--|
|------------1----------|---------------------------|
|-----------------------|---------------------------|


   S   S  S  S S  S  S  S  S  S  S S  Q
|-----------------------------------------|
|-----------------------------------------|
|-12--12-12-12---12-12-12-12----12---10---|
|-----------------------------------------|
|-----------------------------------------|
|-----------------------------------------|
|
|  S   S  S  S S  S  S  S  S  S  S S  Q
|-----------------------------------------|
|-----------------------------------------|
|-15--15-15-15---15-15-15-15----15---14---|
|-----------------------------------------|
|-----------------------------------------|
|-----------------------------------------|
|
|  Q.                E    +E     E    Q
|-----------------------------------------|
|-----------------------------------------|
|-----------------------------------------|
|--5-----------------5----(5)----5----3---|
|-----------------------------------------|
|-----------------------------------------|


   S   S  S  S S  S  S  S  S  S  S S  Q
|----------------------------------------|
|-------------------------------------6--|
|--8---8--8--8----8--8--8--8-----8-------|
|----------------------------------------|
|----------------------------------------|
|----------------------------------------|
|
|  S   S  S  S S  S  S  S  S  S  S S  Q
|----------------------------------------|
|------------------------------------10--|
|-12--12-12-12---12-12-12-12----12-------|
|----------------------------------------|
|----------------------------------------|
|----------------------------------------|
|
|  Q.                E    +E     E    Q
|----------------------------------------|
|----------------------------------------|
|----------------------------------------|
|--1-----------------1----(1)----1----3--|
|----------------------------------------|
|----------------------------------------|


   S   S  S  S S  S  S  S  S  S  S S  Q
|----------------------------------------|
|--8---8--8--8----8--8--8--8-----8----6--|
|----------------------------------------|
|----------------------------------------|
|----------------------------------------|
|----------------------------------------|
|
|  S   S  S  S S  S  S  S  S  S  S S  Q
|----------------------------------------|
|-11--11-11-11---11-11-11-11----11---10--|
|----------------------------------------|
|----------------------------------------|
|----------------------------------------|
|----------------------------------------|
|
|  Q.                E    +E     E    Q
|----------------------------------------|
|----------------------------------------|
|----------------------------------------|
|--5-----------------5----(5)----5----3--|
|----------------------------------------|
|----------------------------------------|


  S S S S S S  S  S  S  S  S S  Q     S   S  S  S S  S  S  S   S  S  S S  Q
|----------------------------------|-----------------------------------------|
|-4-4-4-4---4--6--8-10-11-10-------|-11--11-11-11---11-11-11--11----11---10--|
|------------------------------10--|-----------------------------------------|
|----------------------------------|-----------------------------------------|
|----------------------------------|-----------------------------------------|
|----------------------------------|-----------------------------------------|
|
| S S S S S S  S  S  S  S  S S  Q     S   S  S  S S  S  S  S   S  S  S S  Q
|----------------------------------|-----------------------------------------|
|-8-8-8-8---8-10-11-13-15-13-------|-15--15-15-15---15-15-15--15----15---13--|
|------------------------------14--|-----------------------------------------|
|----------------------------------|-----------------------------------------|
|----------------------------------|-----------------------------------------|
|----------------------------------|-----------------------------------------|
|
| Q       S S  S  S  S  S  E    Q     Q.                E     +E     E    Q
|----------------------------------|-----------------------------------------|
|----------------------------------|-----------------------------------------|
|----------------------------------|-----------------------------------------|
|-1---------1--3--5--7--8--7-------|-----------------------------------------|
|-------------------------------8--|-10----------------10----(10)---10----8--|
|----------------------------------|-----------------------------------------|


   S   S  S  S S  S  S  S  S  S  S S  Q
|----------------------------------------|
|--8---8--8--8----8--8--8--8-----8---10--|
|----------------------------------------|
|----------------------------------------|
|----------------------------------------|
|----------------------------------------|
|
|  S   S  S  S S  S  S  S  S  S  S S  Q
|----------------------------------------|
|-11--11-11-11---11-11-11-11----11---13--|
|----------------------------------------|
|----------------------------------------|
|----------------------------------------|
|----------------------------------------|
|
|  Q.                E    +E     E    Q
|----------------------------------------|
|----------------------------------------|
|----------------------------------------|
|----------------------------------------|
|--6-----------------6----(6)----6----8--|
|----------------------------------------|


   S   S  S  S S  S  S  S   S  S  S S  Q
|-----------------------------------------|
|-11--11-11-11---11-11-11--11----10---11--|
|-----------------------------------------|
|-----------------------------------------|
|-----------------------------------------|
|-----------------------------------------|
|
|  S   S  S  S S  S  S  S   S  S  S S  Q
|-----------------------------------------|
|-15--15-15-15---15-15-15--15----15---16--|
|-----------------------------------------|
|-----------------------------------------|
|-----------------------------------------|
|-----------------------------------------|
|
|  Q.                E     +E     E    Q
|-----------------------------------------|
|-----------------------------------------|
|-----------------------------------------|
|--------------------------------------8--|
|-10----------------10----(10)---10-------|
|-----------------------------------------|


   S   S  S  S S  S  S  S  S  S E S  S  S  S
|--------------------------------------------|
|-13--13-13-13---13-13-13-13-----------------|
|--------------------------------------------|
|--------------------------------------------|
|--------------------------------------15-17-|
|-----------------------------------15-------|
|
|  S   S  S  S S  S  S  S  S  S E S  S  S  S
|--------------------------------------------|
|-18--18-18-18---18-18-18-18-----------------|
|--------------------------------------------|
|--------------------------------------------|
|--------------------------------------18-20-|
|-----------------------------------20-------|
|
|  Q.                E    +E    E Q
|--------------------------------------------|
|--------------------------------------------|
|--------------------------------------------|
|--------------------------------------------|
|--8-----------------8----(8)----------------|
|--------------------------------------------|


   S  S  S  S  +S   S  S  S  S  S  S  S  +S   S  S  S
|-----------------------------------------------------|
|-----------------------------------------------------|
|-----------------------------------------------------|
|------------------------------------17-(17)-17-15-17-|
|-18-17-18------------15-17-18-17-18------------------|
|----------15-(15)-15---------------------------------|
|
|  S  S  S  S  +S   S  S  S  S  S  S  S  +S   S  S  S
|-----------------------------------------------------|
|-----------------------------------------------------|
|-----------------------------------------------------|
|------------------------------------20-(20)-20-19-20-|
|-22-20-22------------18-20-22-20-22------------------|
|----------20-(20)-20---------------------------------|
|
|  W
|-----------------------------------------------------|
|-----------------------------------------------------|
|-----------------------------------------------------|
|-----------------------------------------------------|
|-----------------------------------------------------|
|-----------------------------------------------------|


   S  S  S  S  +S   S  S  S S  S S  S S  E.
|-------------------------------------------|
|-------------------------------------------|
|-------------------------------------------|
|-------------------------------------------|
|-18-17-18------------15-17---18---20---22--|
|----------15-(15)-15-----------------------|
|
|  S  S  S  S  +S   S  S  S S  S S  S S  E.
|----------------------------------------6--|
|-------------------------------------------|
|-------------------------------------------|
|-------------------------------------------|
|-22-20-22------------18-20---22---24-------|
|----------20-(20)-20-----------------------|
|
|  W
|-------------------------------------------|
|-------------------------------------------|
|-------------------------------------------|
|-------------------------------------------|
|-------------------------------------------|
|-------------------------------------------|


   Q.             E    E    S  S  +S   S  E
|----------------------------------------------|
|----------------------------------------------|
|----------------------------------------------|
|----------------------------------------20----|
|---------------------22---20-22-(22)-23-------|
|-20-------------------------------------------|
|
|  Q.             E    E    S  S  +S   S  E
|----------------------8----6--8--(8)-10-11----|
|--6-------------------------------------------|
|----------------------------------------------|
|----------------------------------------------|
|----------------------------------------------|
|----------------------------------------------|
|
|  S  S S S +S  S S S  S S  S  S  +S   S  S S
|----------------------------------------------|
|----------------------------------------------|
|----------------------------------------------|
|----------------------------------------------|
|------------------------------6--(6)--6--5-6--|
|--8--6-8-1-(1)-1-4-6--8-6--8------------------|


   +W
|-----------------------------------|
|-----------------------------------|
|-----------------------------------|
|-(20)------------------------------|
|-----------------------------------|
|-----------------------------------|
|
|  +W
|-(11)------------------------------|
|-----------------------------------|
|-----------------------------------|
|-----------------------------------|
|-----------------------------------|
|-----------------------------------|
|
|   S  S S S +S  S S S S S S S E. S
|-----------------------------------|
|-----------------------------------|
|-----------------------------------|
|-----------------------------------|
|------------------------6-5-6-5----|
|---8--6-8-1-(1)-4-6-8------------6-|


   Q.             E    E    S  S  +S   S  E
|----------------------------------------------|
|----------------------------------------------|
|----------------------------------------------|
|----------------------------------------------|
|---------------------22---20-22-(22)-24-------|
|-20-------------------------------------23----|
|
|  Q.             E    E    S  S  +S   S  E
|----------------------8----6--8--(8)-10-------|
|-----------------------------------------9----|
|-10-------------------------------------------|
|----------------------------------------------|
|----------------------------------------------|
|----------------------------------------------|
|
|  S  S S S +S  S S S  S S  S  S  +S   S  S S
|----------------------------------------------|
|----------------------------------------------|
|----------------------------------------------|
|----------------------------------------------|
|------------------------------6--(6)--6--5-6--|
|--8--6-8-1-(1)-1-4-6--8-6--8------------------|


   +W
|-----------------------------------|
|-----------------------------------|
|-----------------------------------|
|-----------------------------------|
|-----------------------------------|
|-(23)------------------------------|
|
|  +W
|-----------------------------------|
|--(9)------------------------------|
|-----------------------------------|
|-----------------------------------|
|-----------------------------------|
|-----------------------------------|
|
|   S  S S S +S  S S S S S S S E. S
|-----------------------------------|
|-----------------------------------|
|-----------------------------------|
|-----------------------------------|
|------------------------6-5-6-5----|
|---8--6-8-1-(1)-4-6-8------------6-|


   Q.             E    E    S  S  +S   S  E
|----------------------------------------------|
|----------------------------------------------|
|----------------------------------------------|
|----------------------------------------20----|
|---------------------22---20-22-(22)-23-------|
|-20-------------------------------------------|
|
|  Q.             E    E    S  S  +S   S  E
|----------------------8----6--8--(8)-10-11----|
|----------------------------------------------|
|-10-------------------------------------------|
|----------------------------------------------|
|----------------------------------------------|
|----------------------------------------------|
|
|  S  S S S +S  S S S  S S  S  S  +S   S  S S
|----------------------------------------------|
|----------------------------------------------|
|----------------------------------------------|
|----------------------------------------------|
|------------------------------6--(6)--6--5-6--|
|--8--6-8-1-(1)-1-4-6--8-6--8------------------|


   +W
|-----------------------------------|
|-----------------------------------|
|-----------------------------------|
|-(20)------------------------------|
|-----------------------------------|
|-----------------------------------|
|
|  +W
|-(11)------------------------------|
|-----------------------------------|
|-----------------------------------|
|-----------------------------------|
|-----------------------------------|
|-----------------------------------|
|
|   S  S S S +S  S S S S S S S E. S
|-----------------------------------|
|-----------------------------------|
|-----------------------------------|
|-----------------------------------|
|------------------------6-5-6-5----|
|---8--6-8-1-(1)-4-6-8------------6-|


   Q.             E    E    S  S  +S   S  E
|----------------------------------------------|
|----------------------------------------------|
|----------------------------------------------|
|----------------------------------------------|
|---------------------22---20-22-(22)-24-------|
|-20-------------------------------------23----|
|
|  Q.             E    E    S  S  +S   S  E
|----------------------8----6--8--(8)-10-------|
|-----------------------------------------9----|
|-10-------------------------------------------|
|----------------------------------------------|
|----------------------------------------------|
|----------------------------------------------|
|
|  S  S S S +S  S S S  S S  S  S  +S   S  S S
|----------------------------------------------|
|----------------------------------------------|
|----------------------------------------------|
|----------------------------------------------|
|------------------------------6--(6)--6--5-6--|
|--8--6-8-1-(1)-1-4-6--8-6--8------------------|


   +W                                  S S  E  S   E  S   S  S  E Q
|-----------------------------------|---------------------6-----6----------|
|-----------------------------------|--------------------------------------|
|-----------------------------------|--------------------------------------|
|-----------------------------------|--------------------------------------|
|-----------------------------------|-22---22-----24-----------------------|
|-(23)------------------------------|--------------------------------------|
|
|  +W                                  S S  E  S   E  S   S  S  E Q
|-----------------------------------|--8----8-----10-----11----11----------|
|--(9)------------------------------|--------------------------------------|
|-----------------------------------|--------------------------------------|
|-----------------------------------|--------------------------------------|
|-----------------------------------|--------------------------------------|
|-----------------------------------|--------------------------------------|
|
|   S  S S S +S  S S S S S S S E. S    Q       E.     S  +S  S  E S S S  S
|-----------------------------------|--------------------------------------|
|-----------------------------------|--------------------------------------|
|-----------------------------------|--------------------------------------|
|-----------------------------------|-----------------------------8-9---10-|
|------------------------6-5-6-5----|--------------------------10----------|
|---8--6-8-1-(1)-4-6-8------------6-|--8------10-----11-(11)-8-------------|


   S S  E  S   E  S   S  S  E     S  E S
|--5----5------6------8-----8-----6--8-----|
|------------------------------------------|
|------------------------------------------|
|------------------------------------------|
|------------------------------------------|
|------------------------------------------|
|
|  S S  E  S   E  S   S  S  E     S  E S
|-10---10-----11-----13----13----11-13-----|
|------------------------------------------|
|------------------------------------------|
|------------------------------------------|
|------------------------------------------|
|------------------------------------------|
|
|  Q       E.     S  +E.       S  Q
|------------------------------------------|
|------------------------------------------|
|------------------------------------------|
|------------------------------------------|
|------------------------------------------|
|-10------11-----13-(13)------11-13--------|


   S S  E S   E S  S  S  E Q           S S  E  S   E  S   Q    Q
|-----------------------------------|-------------------------13--|
|--8----8----10---11----11----------|-10---10-----11-----13-------|
|-----------------------------------|-----------------------------|
|-----------------------------------|-----------------------------|
|-----------------------------------|-----------------------------|
|-----------------------------------|-----------------------------|
|
|  S S  E S   E S  S  S  E Q           S S  E  S   E  S   Q    Q
|-----------------------------------|-------------------------18--|
|-13---13----15---16----16----------|-15---15-----16-----18-------|
|-----------------------------------|-----------------------------|
|-----------------------------------|-----------------------------|
|-----------------------------------|-----------------------------|
|-----------------------------------|-----------------------------|
|
|  Q      E.    S +S  S  E S S S  S    Q       E.     S  +Q    Q
|-----------------------------------|-----------------------------|
|-----------------------------------|-----------------------------|
|-----------------------------------|-----------------------------|
|--------------------------8-9---10-|-----------------------------|
|--3------5-----6-(6)---10----------|-------------------------13--|
|---------------------8-------------|-10------11-----13-(13)------|


   S  S  S  S  S  S  S  S  S  S  S  S  S  S  S  S
|-15-13-15-13-22-20-18-17-15-13-15-13-------------|
|-------------------------------------15-13-15-13-|
|-------------------------------------------------|
|-------------------------------------------------|
|-------------------------------------------------|
|-------------------------------------------------|
|
|  S  S  S  S  S  S  S  S  S  S  S  S  S  S  S  S
|-18-17-22-20-18-17-15-13-15-13-------------------|
|-------------------------------15-13-15-13-11-10-|
|-------------------------------------------------|
|-------------------------------------------------|
|-------------------------------------------------|
|-------------------------------------------------|
|
|  S  S  S  S  S  S  S  S  S  S  S  S  S  S  S  S
|-------10--8--6--5--3--1--3--1-------------------|
|--------------------------------3--1--3--1-------|
|-12-10--------------------------------------3--2-|
|-------------------------------------------------|
|-------------------------------------------------|
|-------------------------------------------------|


   Q   S   E  S  E     E     S  E    S
|--------------------------------------|
|--------------------------------------|
|--------------------------------------|
|---------------17----15----13-12------|
|---------17-18---------------------13-|
|-15--15-------------------------------|
|
|  Q   S   E  S  E     E     S  E    S
|--------------------------------------|
|--------------------------------------|
|---------------12----10-----8--7------|
|-10--10--12-13----------------------8-|
|--------------------------------------|
|--------------------------------------|
|
|  Q   E.     S  S  S  S  S  S  S S  S
|--------------------------------------|
|--------------------------------------|
|--------------------------------------|
|--------------------------------------|
|--3---5------6-----------------1----2-|
|----------------8-10----11--3---------|


   S S S S S E S   E  S S   S   E    S    Q   S  E S  Q   S  E S
|--------------------------------------|-------------------------|
|--------------------------------------|-------------------------|
|--------------------------------------|-------------------------|
|--------------------------------------|-------------------------|
|--3-3-3---3-5-----6--------8--10------|--8--10-12---13--15-17---|
|-----------------------8--------------|-------------------------|
|
|  H              +Q       +S   S  E      Q   S  E S  Q   S  E S
|--------------------------------------|-------------------------|
|--------------------------------------|-------------------------|
|--------------------------------------|-------------------------|
|-10-------------(10)-----(10)---------|-------------------------|
|--------------------------------------|-12--13-15---17--18-20---|
|--------------------------------------|-------------------------|
|
|  E   E   Q       E.   S  +E      E      H           H
|--------------------------------------|-------------------------|
|--------------------------------------|-------------------------|
|--------------------------------------|-------------------------|
|--------------------------------------|-------------------------|
|--3---3---5-------6----8--(8)----10---|--8----------------------|
|--------------------------------------|--------------6----------|


   Q   S  E  S  Q   S  S  S  S    S  S  S  S  +S   S  S  S  E  S  S  S  E  S
|------------------------------|---------------------------------------------|
|------------------------------|---------------------------------------------|
|------------------------------|---------------------------------------------|
|--------------20--19----------|------------------------------20-19-20-19----|
|-18--18-20-22-----------18-20-|-22-20-22------------18-20-22-------------20-|
|---------------------20-------|----------20-(20)-20-------------------------|
|
|  Q   S  E  S  Q   S  S  S  S    W
|------------6-10---8----------|---------------------------------------------|
|----------------------------6-|---------------------------------------------|
|-------------------------8----|---------------------------------------------|
|---------------------10-------|---------------------------------------------|
|-22--22-24--------------------|---------------------------------------------|
|------------------------------|---------------------------------------------|
|
|  H            Q   S  S  S  S    W
|------------------------------|---------------------------------------------|
|------------------------------|---------------------------------------------|
|------------------------------|---------------------------------------------|
|------------------------------|---------------------------------------------|
|--6-------------------0--1--2-|--3------------------------------------------|
|---------------3---1----------|---------------------------------------------|


   S  S  S  S  +S   S  S  S  E   S  S  S   E    S
|-------------------------------------------------|
|-------------------------------------------------|
|-------------------------------------------------|
|-------------------------------20-19-20--22---24-|
|-22-20-22------------18-20-22--------------------|
|----------20-(20)-20-----------------------------|
|
|  H                        +Q        +S   S E
|-------------------------------------------------|
|--8------------------------(8)-------(8)---------|
|-------------------------------------------------|
|-------------------------------------------------|
|-------------------------------------------------|
|-------------------------------------------------|
|
|  W
|-------------------------------------------------|
|-------------------------------------------------|
|-------------------------------------------------|
|--1----------------------------------------------|
|-------------------------------------------------|
|-------------------------------------------------|


  Q  S  E S  Q   S  E S    S  S  E  S  E  S  Q   Q
|-----------------------|---------------------------|
|-----------------------|---------------------------|
|-----------------------|-------------------15--14--|
|-3--5--7----8--10-12---|-13-13-13-13-15-17---------|
|-----------------------|---------------------------|
|-----------------------|---------------------------|
|
| Q  S  E S  Q   S  E S    S  S  E  S  E  S  Q   Q
|-----------------------|---------------------------|
|-----------------------|---------------------------|
|-----------------------|-------------------19--17--|
|-7--8-10---12--13-15---|-17-17-17-17-19-20---------|
|-----------------------|---------------------------|
|-----------------------|---------------------------|
|
| H          H             Q        S  E  S  Q   Q
|-----------------------|---------------------------|
|-----------------------|---------------------------|
|-----------------------|--------------------0------|
|-3---------------------|--1--------1--3--1------3--|
|------------1----------|---------------------------|
|-----------------------|---------------------------|


   S   S  S  S S  S  S  S  S  S  S S  Q
|----------------------------------------|
|----------------------------------------|
|-12--12-12-12---12-12-12-12----12---10--|
|----------------------------------------|
|----------------------------------------|
|----------------------------------------|
|
|  S   S  S  S S  S  S  S  S  S  S S  Q
|----------------------------------------|
|----------------------------------------|
|-15--15-15-15---15-15-15-15----15---14--|
|----------------------------------------|
|----------------------------------------|
|----------------------------------------|
|
|  Q.                E    +E     E    Q
|----------------------------------------|
|----------------------------------------|
|----------------------------------------|
|--5-----------------5----(5)----5----3--|
|----------------------------------------|
|----------------------------------------|


   S   S  S  S S  S  S  S  S  S  S S  Q
|----------------------------------------|
|-------------------------------------6--|
|--8---8--8--8----8--8--8--8-----8-------|
|----------------------------------------|
|----------------------------------------|
|----------------------------------------|
|
|  S   S  S  S S  S  S  S  S  S  S S  Q
|----------------------------------------|
|------------------------------------10--|
|-12--12-12-12---12-12-12-12----12-------|
|----------------------------------------|
|----------------------------------------|
|----------------------------------------|
|
|  Q.                E    +E     E    Q
|----------------------------------------|
|----------------------------------------|
|----------------------------------------|
|--1-----------------1----(1)----1----3--|
|----------------------------------------|
|----------------------------------------|


   S   S  S  S S  S  S  S  S  S  S S  Q    S S S S S S  S  S  S  S  S S  Q
|----------------------------------------|----------------------------------|
|--8---8--8--8----8--8--8--8-----8----6--|-4-4-4-4---4--6--8-10-11-10-------|
|----------------------------------------|------------------------------10--|
|----------------------------------------|----------------------------------|
|----------------------------------------|----------------------------------|
|----------------------------------------|----------------------------------|
|
|  S   S  S  S S  S  S  S  S  S  S S  Q    S S S S S S  S  S  S  S  S S  Q
|----------------------------------------|----------------------------------|
|-11--11-11-11---11-11-11-11----11---10--|-8-8-8-8---8-10-11-13-15-13-------|
|----------------------------------------|------------------------------14--|
|----------------------------------------|----------------------------------|
|----------------------------------------|----------------------------------|
|----------------------------------------|----------------------------------|
|
|  Q.                E    +E     E    Q    Q       S S  S  S  S  S  E    Q
|----------------------------------------|----------------------------------|
|----------------------------------------|----------------------------------|
|----------------------------------------|----------------------------------|
|--5-----------------5----(5)----5----3--|-1---------1--3--5--7--8--7-------|
|----------------------------------------|-------------------------------8--|
|----------------------------------------|----------------------------------|


   S   S  S  S S  S  S  S   S  S  S S  Q
|-----------------------------------------|
|-11--11-11-11---11-11-11--11----11---10--|
|-----------------------------------------|
|-----------------------------------------|
|-----------------------------------------|
|-----------------------------------------|
|
|  S   S  S  S S  S  S  S   S  S  S S  Q
|-----------------------------------------|
|-15--15-15-15---15-15-15--15----15---13--|
|-----------------------------------------|
|-----------------------------------------|
|-----------------------------------------|
|-----------------------------------------|
|
|  Q.                E     +E     E    Q
|-----------------------------------------|
|-----------------------------------------|
|-----------------------------------------|
|-----------------------------------------|
|-10----------------10----(10)---10----8--|
|-----------------------------------------|


   S   S  S  S S  S  S  S  S  S  S S  Q
|----------------------------------------|
|--8---8--8--8----8--8--8--8-----8---10--|
|----------------------------------------|
|----------------------------------------|
|----------------------------------------|
|----------------------------------------|
|
|  S   S  S  S S  S  S  S  S  S  S S  Q
|----------------------------------------|
|-11--11-11-11---11-11-11-11----11---13--|
|----------------------------------------|
|----------------------------------------|
|----------------------------------------|
|----------------------------------------|
|
|  Q.                E    +E     E    Q
|----------------------------------------|
|----------------------------------------|
|----------------------------------------|
|----------------------------------------|
|--6-----------------6----(6)----6----8--|
|----------------------------------------|


   S   S  S  S S  S  S  S   S  S  S S  Q
|-----------------------------------------|
|-11--11-11-11---11-11-11--11----10---11--|
|-----------------------------------------|
|-----------------------------------------|
|-----------------------------------------|
|-----------------------------------------|
|
|  S   S  S  S S  S  S  S   S  S  S S  Q
|-----------------------------------------|
|-15--15-15-15---15-15-15--15----15---16--|
|-----------------------------------------|
|-----------------------------------------|
|-----------------------------------------|
|-----------------------------------------|
|
|  Q.                E     +E     E    Q
|-----------------------------------------|
|-----------------------------------------|
|-----------------------------------------|
|--------------------------------------8--|
|-10----------------10----(10)---10-------|
|-----------------------------------------|


   S   S  S  S S  S  S  S  S  S E S  S  S  S
|--------------------------------------------|
|-13--13-13-13---13-13-13-13-----------------|
|--------------------------------------------|
|--------------------------------------------|
|--------------------------------------15-17-|
|-----------------------------------15-------|
|
|  S   S  S  S S  S  S  S  S  S E S  S  S  S
|--------------------------------------------|
|-18--18-18-18---18-18-18-18-----------------|
|--------------------------------------------|
|--------------------------------------------|
|--------------------------------------18-20-|
|-----------------------------------20-------|
|
|  Q.                E    +E    E Q
|--------------------------------------------|
|--------------------------------------------|
|--------------------------------------------|
|--------------------------------------------|
|--8-----------------8----(8)----------------|
|--------------------------------------------|


   S  S  S  S  +S   S  S  S  S  S  S  S  +S   S  S  S
|-----------------------------------------------------|
|-----------------------------------------------------|
|-----------------------------------------------------|
|------------------------------------17-(17)-17-15-17-|
|-18-17-18------------15-17-18-17-18------------------|
|----------15-(15)-15---------------------------------|
|
|  S  S  S  S  +S   S  S  S  S  S  S  S  +S   S  S  S
|-----------------------------------------------------|
|-----------------------------------------------------|
|-----------------------------------------------------|
|------------------------------------20-(20)-20-19-20-|
|-22-20-22------------18-20-22-20-22------------------|
|----------20-(20)-20---------------------------------|


   S  S  S  S  +S   S  S  S S  S S  S S  E.
|--------------------------------------------|
|--------------------------------------------|
|--------------------------------------------|
|--------------------------------------------|
|-18-17-18------------15-17---18---20---22---|
|----------15-(15)-15------------------------|
|
|  S  S  S  S  +S   S  S  S S  S S  S S  E.
|----------------------------------------6---|
|--------------------------------------------|
|--------------------------------------------|
|--------------------------------------------|
|-22-20-22------------18-20---22---24--------|
|----------20-(20)-20------------------------|


   Q.             E    E    S  S  +S   S  E
|---------------------------------------------|
|---------------------------------------------|
|---------------------------------------------|
|----------------------------------------20---|
|---------------------22---20-22-(22)-23------|
|-20------------------------------------------|
|
|  Q.             E    E    S  S  +S   S  E
|----------------------8----6--8--(8)-10-11---|
|--6------------------------------------------|
|---------------------------------------------|
|---------------------------------------------|
|---------------------------------------------|
|---------------------------------------------|
|
| Gtr III
|  S  S S S +S  S S S  S S  S  S  +S   S  S S
|---------------------------------------------|
|---------------------------------------------|
|---------------------------------------------|
|---------------------------------------------|
|------------------------------6--(6)--6--5-6-|
|--8--6-8-1-(1)-1-4-6--8-6--8-----------------|


   +W
|------------------------------------|
|------------------------------------|
|------------------------------------|
|-(20)-------------------------------|
|------------------------------------|
|------------------------------------|
|
|  +W
|-(11)-------------------------------|
|------------------------------------|
|------------------------------------|
|------------------------------------|
|------------------------------------|
|------------------------------------|
|
|   S  S S S +S  S S S S S S S E. S
|------------------------------------|
|------------------------------------|
|------------------------------------|
|------------------------------------|
|------------------------6-5-6-5-----|
|---8--6-8-1-(1)-4-6-8------------6--|


   Q.             E    E    S  S  +S   S  E
|---------------------------------------------|
|---------------------------------------------|
|---------------------------------------------|
|---------------------------------------------|
|---------------------22---20-22-(22)-24------|
|-20-------------------------------------23---|
|
|  Q.             E    E    S  S  +S   S  E
|----------------------8----6--8--(8)-10------|
|-----------------------------------------9---|
|-10------------------------------------------|
|---------------------------------------------|
|---------------------------------------------|
|---------------------------------------------|
|
|  S  S S S +S  S S S  S S  S  S  +S   S  S S
|---------------------------------------------|
|---------------------------------------------|
|---------------------------------------------|
|---------------------------------------------|
|------------------------------6--(6)--6--5-6-|
|--8--6-8-1-(1)-1-4-6--8-6--8-----------------|


   +W
|------------------------------------|
|------------------------------------|
|------------------------------------|
|------------------------------------|
|------------------------------------|
|-(23)-------------------------------|
|
|  +W
|------------------------------------|
|--(9)-------------------------------|
|------------------------------------|
|------------------------------------|
|------------------------------------|
|------------------------------------|
|
|   S  S S S +S  S S S S S S S E. S
|------------------------------------|
|------------------------------------|
|------------------------------------|
|------------------------------------|
|------------------------6-5-6-5-----|
|---8--6-8-1-(1)-4-6-8------------6--|


   Q.             E    E    S  S  +S   S  E
|---------------------------------------------|
|---------------------------------------------|
|---------------------------------------------|
|----------------------------------------20---|
|---------------------22---20-22-(22)-23------|
|-20------------------------------------------|
|
|  Q.             E    E    S  S  +S   S  E
|----------------------8----6--8--(8)-10-11---|
|---------------------------------------------|
|-10------------------------------------------|
|---------------------------------------------|
|---------------------------------------------|
|---------------------------------------------|
|
|  S  S S S +S  S S S  S S  S  S  +S   S  S S
|---------------------------------------------|
|---------------------------------------------|
|---------------------------------------------|
|---------------------------------------------|
|------------------------------6--(6)--6--5-6-|
|--8--6-8-1-(1)-1-4-6--8-6--8-----------------|


   +W
|------------------------------------|
|------------------------------------|
|------------------------------------|
|-(20)-------------------------------|
|------------------------------------|
|------------------------------------|
|
|  +W
|-(11)-------------------------------|
|------------------------------------|
|------------------------------------|
|------------------------------------|
|------------------------------------|
|------------------------------------|
|
|   S  S S S +S  S S S S S S S E. S
|------------------------------------|
|------------------------------------|
|------------------------------------|
|------------------------------------|
|------------------------6-5-6-5-----|
|---8--6-8-1-(1)-4-6-8------------6--|


   Q.             E    E    S  S  +S   S  E
|---------------------------------------------|
|---------------------------------------------|
|---------------------------------------------|
|---------------------------------------------|
|---------------------22---20-22-(22)-24------|
|-20-------------------------------------23---|
|
|  Q.             E    E    S  S  +S   S  E
|----------------------8----6--8--(8)-10------|
|-----------------------------------------9---|
|-10------------------------------------------|
|---------------------------------------------|
|---------------------------------------------|
|---------------------------------------------|
|
|  S  S S S +S  S S S  S S  S  S  +S   S  S S
|---------------------------------------------|
|---------------------------------------------|
|---------------------------------------------|
|---------------------------------------------|
|------------------------------6--(6)--6--5-6-|
|--8--6-8-1-(1)-1-4-6--8-6--8-----------------|


   +W
|------------------------------------|
|------------------------------------|
|------------------------------------|
|------------------------------------|
|------------------------------------|
|-(23)-------------------------------|
|
|  +W
|------------------------------------|
|--(9)-------------------------------|
|------------------------------------|
|------------------------------------|
|------------------------------------|
|------------------------------------|
|
|   S  S S S +S  S S S S S S S E. S
|------------------------------------|
|------------------------------------|
|------------------------------------|
|------------------------------------|
|------------------------6-5-6-5-----|
|---8--6-8-1-(1)-4-6-8------------6--|


   S S  E  S   E  S   S  S  E Q
|---------------------6-----6----------|
|--------------------------------------|
|--------------------------------------|
|--------------------------------------|
|-22---22-----24-----------------------|
|--------------------------------------|
|
|  S S  E  S   E  S   S  S  E Q
|--8----8-----10-----11----11----------|
|--------------------------------------|
|--------------------------------------|
|--------------------------------------|
|--------------------------------------|
|--------------------------------------|
|
|  Q       E.     S  +S  S  E S S S  S
|--------------------------------------|
|--------------------------------------|
|--------------------------------------|
|-----------------------------8-9---10-|
|--------------------------10----------|
|--8------10-----11-(11)-8-------------|


   S S  E  S   E  S   S  S  E     S  E S    S S  E S   E S  S  S  E Q
|--5----5------6------8-----8-----6--8---|-----------------------------------|
|----------------------------------------|--8----8----10---11----11----------|
|----------------------------------------|-----------------------------------|
|----------------------------------------|-----------------------------------|
|----------------------------------------|-----------------------------------|
|----------------------------------------|-----------------------------------|
|
|  S S  E  S   E  S   S  S  E     S  E S    S S  E S   E S  S  S  E Q
|-10---10-----11-----13----13----11-13---|-----------------------------------|
|----------------------------------------|-13---13----15---16----16----------|
|----------------------------------------|-----------------------------------|
|----------------------------------------|-----------------------------------|
|----------------------------------------|-----------------------------------|
|----------------------------------------|-----------------------------------|
|
|  Q       E.     S  +E.       S  Q         Q      E.    S +S  S  E S S S  S
|----------------------------------------|-----------------------------------|
|----------------------------------------|-----------------------------------|
|----------------------------------------|-----------------------------------|
|----------------------------------------|--------------------------8-9---10-|
|----------------------------------------|--3------5-----6-(6)---10----------|
|-10------11-----13-(13)------11-13------|---------------------8-------------|


   S S  E  S   E  S   Q    Q     S  S  S  S  S  S  S  S  S  S  S  S  S  S  S  S
|-------------------------13--|-15-13-15-13-22-20-18-17-15-13-15-13-------------|
|-10---10-----11-----13-------|-------------------------------------15-13-15-13-|
|-----------------------------|-------------------------------------------------|
|-----------------------------|-------------------------------------------------|
|-----------------------------|-------------------------------------------------|
|-----------------------------|-------------------------------------------------|
|
|  S S  E  S   E  S   Q    Q     S  S  S  S  S  S  S  S  S  S  S  S  S  S  S  S
|-------------------------18--|-18-17-22-20-18-17-15-13-15-13-------------------|
|-15---15-----16-----18-------|-------------------------------15-13-15-13-11-10-|
|-----------------------------|-------------------------------------------------|
|-----------------------------|-------------------------------------------------|
|-----------------------------|-------------------------------------------------|
|-----------------------------|-------------------------------------------------|
|
|  Q       E.     S  +Q    Q     S  S  S  S  S  S  S  S  S  S  S  S  S  S  S  S
|-----------------------------|-------10--8--6--5--3--1--3--1-------------------|
|-----------------------------|--------------------------------3--1--3--1-------|
|-----------------------------|-12-10--------------------------------------3--2-|
|-----------------------------|-------------------------------------------------|
|-------------------------13--|-------------------------------------------------|
|-10------11-----13-(13)------|-------------------------------------------------|


   Q   S   E  S  E     E     S  E    S
|--------------------------------------|
|--------------------------------------|
|--------------------------------------|
|---------------17----15----13-12------|
|---------17-18---------------------13-|
|-15--15-------------------------------|
|
|  Q   S   E  S  E     E     S  E    S
|--------------------------------------|
|--------------------------------------|
|---------------12----10-----8--7------|
|-10--10--12-13----------------------8-|
|--------------------------------------|
|--------------------------------------|
|
|  Q   E.     S  S  S  S  S  S  S S  S
|--------------------------------------|
|--------------------------------------|
|--------------------------------------|
|--------------------------------------|
|--3---5------6-----------------1----2-|
|----------------8-10----11--3---------|


   S S S S S E S   E  S S   S   E    S
|--------------------------------------|
|--------------------------------------|
|--------------------------------------|
|--------------------------------------|
|--3-3-3---3-5-----6--------8--10------|
|-----------------------8--------------|
|
|  H              +Q       +S   S  E
|--------------------------------------|
|--------------------------------------|
|--------------------------------------|
|-10-------------(10)-----(10)---------|
|--------------------------------------|
|--------------------------------------|
|
|  E   E   Q       E.   S  +E      E
|--------------------------------------|
|--------------------------------------|
|--------------------------------------|
|--------------------------------------|
|--3---3---5-------6----8--(8)----10---|
|--------------------------------------|


   Q   S  E S  Q   S  E S    Q   S  E  S  Q   S  S  S  S
|-------------------------|------------------------------|
|-------------------------|------------------------------|
|-------------------------|------------------------------|
|-------------------------|--------------20--19----------|
|--8--10-12---13--15-17---|-18--18-20-22-----------18-20-|
|-------------------------|---------------------20-------|
|
|  Q   S  E S  Q   S  E S    Q   S  E  S  Q   S  S  S  S
|-------------------------|------------6-10---8----------|
|-------------------------|----------------------------6-|
|-------------------------|-------------------------8----|
|-------------------------|---------------------10-------|
|-12--13-15---17--18-20---|-22--22-24--------------------|
|-------------------------|------------------------------|
|
|  H           H             H            Q   S  S  S  S
|-------------------------|------------------------------|
|-------------------------|------------------------------|
|-------------------------|------------------------------|
|-------------------------|------------------------------|
|--8----------------------|--6-------------------0--1--2-|
|--------------6----------|---------------3---1----------|


   S  S  S  S  +S   S  S  S  E  S  S  S  E  S
|---------------------------------------------|
|---------------------------------------------|
|---------------------------------------------|
|------------------------------20-19-20-19----|
|-22-20-22------------18-20-22-------------20-|
|----------20-(20)-20-------------------------|
|
|  W
|---------------------------------------------|
|---------------------------------------------|
|---------------------------------------------|
|---------------------------------------------|
|---------------------------------------------|
|---------------------------------------------|
|
|  W
|---------------------------------------------|
|---------------------------------------------|
|---------------------------------------------|
|---------------------------------------------|
|--3------------------------------------------|
|---------------------------------------------|


   S  S  S  S  +S   S  S  S  E   S  S  S   E    S
|-------------------------------------------------|
|-------------------------------------------------|
|-------------------------------------------------|
|-------------------------------20-19-20--22---24-|
|-22-20-22------------18-20-22--------------------|
|----------20-(20)-20-----------------------------|
|
|  H                        +Q        +S   S E
|-------------------------------------------------|
|--8------------------------(8)-------(8)---------|
|-------------------------------------------------|
|-------------------------------------------------|
|-------------------------------------------------|
|-------------------------------------------------|
|
|  W
|-------------------------------------------------|
|-------------------------------------------------|
|-------------------------------------------------|
|--1----------------------------------------------|
|-------------------------------------------------|
|-------------------------------------------------|


  Q  S  E S  Q   S  E S    S  S  E  S  E  S  Q   Q
|-----------------------|---------------------------|
|-----------------------|---------------------------|
|-----------------------|-------------------15--14--|
|-3--5--7----8--10-12---|-13-13-13-13-15-17---------|
|-----------------------|---------------------------|
|-----------------------|---------------------------|
|
| Q  S  E S  Q   S  E S    S  S  E  S  E  S  Q   Q
|-----------------------|---------------------------|
|-----------------------|---------------------------|
|-----------------------|-------------------19--17--|
|-7--8-10---12--13-15---|-17-17-17-17-19-20---------|
|-----------------------|---------------------------|
|-----------------------|---------------------------|
|
| H          H             Q        S  E  S  Q   Q
|-----------------------|---------------------------|
|-----------------------|---------------------------|
|-----------------------|--------------------0------|
|-3---------------------|--1--------1--3--1------3--|
|------------1----------|---------------------------|
|-----------------------|---------------------------|


   S   S  S  S S  S  S  S  S  S  S S  Q
|-----------------------------------------|
|-----------------------------------------|
|-12--12-12-12---12-12-12-12----12---10---|
|-----------------------------------------|
|-----------------------------------------|
|-----------------------------------------|
|
|  S   S  S  S S  S  S  S  S  S  S S  Q
|-----------------------------------------|
|-----------------------------------------|
|-15--15-15-15---15-15-15-15----15---14---|
|-----------------------------------------|
|-----------------------------------------|
|-----------------------------------------|
|
|  Q.                E    +E     E    Q
|-----------------------------------------|
|-----------------------------------------|
|-----------------------------------------|
|--5-----------------5----(5)----5----3---|
|-----------------------------------------|
|-----------------------------------------|


   S   S  S  S S  S  S  S  S  S  S S  Q
|----------------------------------------|
|-------------------------------------6--|
|--8---8--8--8----8--8--8--8-----8-------|
|----------------------------------------|
|----------------------------------------|
|----------------------------------------|
|
|  S   S  S  S S  S  S  S  S  S  S S  Q
|----------------------------------------|
|------------------------------------10--|
|-12--12-12-12---12-12-12-12----12-------|
|----------------------------------------|
|----------------------------------------|
|----------------------------------------|
|
|  Q.                E    +E     E    Q
|----------------------------------------|
|----------------------------------------|
|----------------------------------------|
|--1-----------------1----(1)----1----3--|
|----------------------------------------|
|----------------------------------------|


   S   S  S  S S  S  S  S  S  S  S S  Q
|----------------------------------------|
|--8---8--8--8----8--8--8--8-----8----6--|
|----------------------------------------|
|----------------------------------------|
|----------------------------------------|
|----------------------------------------|
|
|  S   S  S  S S  S  S  S  S  S  S S  Q
|----------------------------------------|
|-11--11-11-11---11-11-11-11----11---10--|
|----------------------------------------|
|----------------------------------------|
|----------------------------------------|
|----------------------------------------|
|
|  Q.                E    +E     E    Q
|----------------------------------------|
|----------------------------------------|
|----------------------------------------|
|--5-----------------5----(5)----5----3--|
|----------------------------------------|
|----------------------------------------|


  S S S S S S  S  S  S  S  S S  Q     S   S  S  S S  S  S  S   S  S  S S  Q
|----------------------------------|-----------------------------------------|
|-4-4-4-4---4--6--8-10-11-10-------|-11--11-11-11---11-11-11--11----11---10--|
|------------------------------10--|-----------------------------------------|
|----------------------------------|-----------------------------------------|
|----------------------------------|-----------------------------------------|
|----------------------------------|-----------------------------------------|
|
| S S S S S S  S  S  S  S  S S  Q     S   S  S  S S  S  S  S   S  S  S S  Q
|----------------------------------|-----------------------------------------|
|-8-8-8-8---8-10-11-13-15-13-------|-15--15-15-15---15-15-15--15----15---13--|
|------------------------------14--|-----------------------------------------|
|----------------------------------|-----------------------------------------|
|----------------------------------|-----------------------------------------|
|----------------------------------|-----------------------------------------|
|
| Q       S S  S  S  S  S  E    Q     Q.                E     +E     E    Q
|----------------------------------|-----------------------------------------|
|----------------------------------|-----------------------------------------|
|----------------------------------|-----------------------------------------|
|-1---------1--3--5--7--8--7-------|-----------------------------------------|
|-------------------------------8--|-10----------------10----(10)---10----8--|
|----------------------------------|-----------------------------------------|


   S   S  S  S S  S  S  S  S  S  S S  Q
|----------------------------------------|
|--8---8--8--8----8--8--8--8-----8---10--|
|----------------------------------------|
|----------------------------------------|
|----------------------------------------|
|----------------------------------------|
|
|  S   S  S  S S  S  S  S  S  S  S S  Q
|----------------------------------------|
|-11--11-11-11---11-11-11-11----11---13--|
|----------------------------------------|
|----------------------------------------|
|----------------------------------------|
|----------------------------------------|
|
|  Q.                E    +E     E    Q
|----------------------------------------|
|----------------------------------------|
|----------------------------------------|
|----------------------------------------|
|--6-----------------6----(6)----6----8--|
|----------------------------------------|


   S   S  S  S S  S  S  S   S  S  S S  Q
|-----------------------------------------|
|-11--11-11-11---11-11-11--11----10---11--|
|-----------------------------------------|
|-----------------------------------------|
|-----------------------------------------|
|-----------------------------------------|
|
|  S   S  S  S S  S  S  S   S  S  S S  Q
|-----------------------------------------|
|-15--15-15-15---15-15-15--15----15---16--|
|-----------------------------------------|
|-----------------------------------------|
|-----------------------------------------|
|-----------------------------------------|
|
|  Q.                E     +E     E    Q
|-----------------------------------------|
|-----------------------------------------|
|-----------------------------------------|
|--------------------------------------8--|
|-10----------------10----(10)---10-------|
|-----------------------------------------|


   S   S  S  S S  S  S  S  S  S E S  S  S  S
|--------------------------------------------|
|-13--13-13-13---13-13-13-13-----------------|
|--------------------------------------------|
|--------------------------------------------|
|--------------------------------------15-17-|
|-----------------------------------15-------|
|
|  S   S  S  S S  S  S  S  S  S E S  S  S  S
|--------------------------------------------|
|-18--18-18-18---18-18-18-18-----------------|
|--------------------------------------------|
|--------------------------------------------|
|--------------------------------------18-20-|
|-----------------------------------20-------|
|
|  Q.                E    +E    E Q
|--------------------------------------------|
|--------------------------------------------|
|--------------------------------------------|
|--------------------------------------------|
|--8-----------------8----(8)----------------|
|--------------------------------------------|


   S  S  S  S  +S   S  S  S  S  S  S  S  +S   S  S  S
|-----------------------------------------------------|
|-----------------------------------------------------|
|-----------------------------------------------------|
|------------------------------------17-(17)-17-15-17-|
|-18-17-18------------15-17-18-17-18------------------|
|----------15-(15)-15---------------------------------|
|
|  S  S  S  S  +S   S  S  S  S  S  S  S  +S   S  S  S
|-----------------------------------------------------|
|-----------------------------------------------------|
|-----------------------------------------------------|
|------------------------------------20-(20)-20-19-20-|
|-22-20-22------------18-20-22-20-22------------------|
|----------20-(20)-20---------------------------------|
|
|  W
|-----------------------------------------------------|
|-----------------------------------------------------|
|-----------------------------------------------------|
|-----------------------------------------------------|
|-----------------------------------------------------|
|-----------------------------------------------------|


   S  S  S  S  +S   S  S  S S  S S  S S  e.
|-------------------------------------------*|
|-------------------------------------------*|
|-------------------------------------------*|
|-------------------------------------------*|
|-18-17-18------------15-17---18---20---22--*|
|----------15-(15)-15-----------------------*|
|
|  S  S  S  S  +S   S  S  S S  S S  S S  e.
|----------------------------------------6--*|
|-------------------------------------------*|
|-------------------------------------------*|
|-------------------------------------------*|
|-22-20-22------------18-20---22---24-------*|
|----------20-(20)-20-----------------------*|
Login or Register to remove this ad.

1 comment on Jungle

a excellent tab

a excellent tab