Vampire Killer (Castlevania) Guitar Tab

Submitted: Sep 30, 2007 by Calebelijah (Last updated: Sep 20, 2009)

4.81818
Average: 4.8 (11 votes)
Download | Listen
Game: Castlevania
Composer(s): Kinuyo Yamashita
Style: Transcription
Series: Castlevania

Click here for a video example.

AutoScroll: Slow | Medium | Fast
Staff-3
      S  S S S S Q    S. T E  S S S    E.  E.  E  S Q.     S
E||--10-10---8---7----L-------------|--5-------5----8------L-|
B||---------------------------5-6-8-|-------------8----------|
G||------------------------7--------|------7-----------------|
D||---------------------------------|------------------------|
A||---------------------------------|------------------------|
E||---------------------------------|------------------------|

   S  S S S S Q    S. T E  S S S    E.  E.  E  S Q.     S
--10-10---8---7----L-------------|--5-------5-------------|
---------------------------5-6-8-|-------------8----------|
------------------------7--------|------7--------5------L-|
---------------------------------|------------------------|
---------------------------------|------------------------|
---------------------------------|------------------------|

  E   T E  T  T E  T  T T  T T  T T  T Q    T
-------------17------16---17---16-------------|
-----15-----------------------------18--------|
----------------------------------------------|
----------------------------------------------|
----------------------------------------------|
----------------------------------------------|

  E   T T  T E  T  T T  T S.  T T  T T  T T  T T  T T  T T  T T
----------------------------------------------------------------|
-----18---15-----------------18---15---18---15---18---15---18---|
----------------------------------------------------------------|
------------------15---12---------------------------------------|
----------------------------------------------------------------|
----------------------------------------------------------------|

  E   T E  T  T E  T  T T  T T  T T  T Q    T
-------------17------16---17---16-------------|
-----15-----------------------------18--------|
----------------------------------------------|
----------------------------------------------|
----------------------------------------------|
----------------------------------------------|

  E   S  S E   S  S S  S  S  S  S  S  S  S     E.   E.   S S  E.   E.   S S
-------------------------------------------|------------18---17-------------|
-----18-15------------18-15-18-15-18-15-18-|-------17-------------18--------|
-------------------------------------------|--18-----------------------19---|
--------------15-12------------------------|--------------------------------|
-------------------------------------------|--------------------------------|
-------------------------------------------|--------------------------------|

   E.   E.   S S  E.   S Q        E.   E.   S S  E.   E.   S S
------------18---17-----------|------------18---17-------------|
-------17---------------------|-------17-------------18--------|
--18------------------19------|--18-----------------------19---|
------------------------------|--------------------------------|
------------------------------|--------------------------------|
------------------------------|--------------------------------|

   E.   E.   S S  E.   E.   S S     S  S  S  H.           S
-------15---18---17---19---21---|--22-22--------------------|
--17----------------------------|---------------------------|
--------------------------------|--------19-19--------------|
--------------------------------|---------------------------|
--------------------------------|---------------------------|
--------------------------------|---------------------------|

   S S  S S  S  E.   S S  S S  S  E.      S  S  S  H.           S
--------------------------------------|--22-22--------------------|
--------------------------------------|---------------------------|
--------------------------------------|--------19-19--------------|
------------12-15-------------14-17---|---------------------------|
--13---13-----------15---15-----------|---------------------------|
--------------------------------------|---------------------------|

   S S  S S  S  E.   S E.  S E.
---------------------------------||
---------------------------------||
---------------------------------||
------------12-15----------------||
--13---13-----------15-----0-----||
-----------------------------8---||

Duration Legend
---------------
W - whole
H - half
Q - quarter
E - 8th
S - 16th
T - 32nd
X - 64th
. - note dotted
|-n-|  - n-tuplets





Staff-2
     S S S S S Q    S. T E  S S S    E.  E.  E  S Q.     S
E||--5-5---3---3----L-------------|---------------3------L-|
B||----------------------3--3-1-1-|--3-------3--1----------|
G||-------------------------------|------3-----------------|
D||-------------------------------|------------------------|
A||-------------------------------|------------------------|
E||-------------------------------|------------------------|

  S S S S S Q    S. T E  S S S    E.  E.  E  S Q.     S
--5-5---3---3----L-------------|---------------3------L-|
----------------------3--3-1-1-|--3-------3--1----------|
-------------------------------|------3-----------------|
-------------------------------|------------------------|
-------------------------------|------------------------|
-------------------------------|------------------------|

  E   T E  T  T E  T  T T  T T  T T  T Q    T
----------------------------------------------|
-------------15------14---15---14---13--------|
-----14---------------------------------------|
----------------------------------------------|
----------------------------------------------|
----------------------------------------------|

   T S.  T T  T S.  T T  T S.  T S.  T T  T S.  T T  T S.
--17----17---16----16---15----17----17---16----16---15----|
----------------------------------------------------------|
----------------------------------------------------------|
----------------------------------------------------------|
----------------------------------------------------------|
----------------------------------------------------------|

  E   T E  T  T E  T  T T  T T  T T  T Q    T
----------------------------------------------|
-------------15------14---15---14---13--------|
-----14---------------------------------------|
----------------------------------------------|
----------------------------------------------|
----------------------------------------------|

   T S.  T T  T S.  T T  T S.  T S.  T T  T S.  T T  T S.
--17----17---16----16---15----17----17---16----16---15----|
----------------------------------------------------------|
----------------------------------------------------------|
----------------------------------------------------------|
----------------------------------------------------------|
----------------------------------------------------------|

   E.   E.   S S  E.   E.   S S     E.   E.   S S  E.   S Q
------------12---10-------------|------------12---10-----------|
-------14-------------10--------|-------14-------------10------|
--15-----------------------10---|--15--------------------------|
--------------------------------|------------------------------|
--------------------------------|------------------------------|
--------------------------------|------------------------------|

   E.   E.   S S  E.   E.   S S     E.   E.   S S  E.   E.   S S
------------12---10-------------|------------12--------12---15---|
-------14-------------10--------|-------14--------14-------------|
--15-----------------------10---|--15----------------------------|
--------------------------------|--------------------------------|
--------------------------------|--------------------------------|
--------------------------------|--------------------------------|

   S  S  S  H.           S    S S S S S E.   S S  S S  S E.
--17-17--------------------|---------------------------------|
---------------------------|---------------------------------|
--------14-14--------------|------------7----------------9---|
---------------------------|----------8---------------10-----|
---------------------------|--8---8---------10---10----------|
---------------------------|---------------------------------|

   S  S  S  H.           S    S S S S S E.   S Q.     S
--17-17--------------------|----------------------------||
---------------------------|----------------------------||
--------14-14--------------|------------7---------------||
---------------------------|----------8-----------------||
---------------------------|--8---8---------10----------||
---------------------------|----------------------------||

Duration Legend
---------------
W - whole
H - half
Q - quarter
E - 8th
S - 16th
T - 32nd
X - 64th
. - note dotted
|-n-|  - n-tuplets
Login or Register to remove this ad.

9 comments on Vampire Killer

Very good! I like!!! I can

Very good! I like!!!

I can only play pretty much the first three notes, but a friend of mine can play more of it, and it seems to play fine. Damn, i love this song!

I love this song, im hooked

I love this song, im hooked on castlevania

Could someone tell me what

Could someone tell me what the 'L's in the tab are for?

L means tied note.

L means tied note.

This is just awesome. I can

This is just awesome. I can actually play it too which blows my mind since i suck at guitar. I tend to mix up Gtr 1 and GTr 2 to kinda make it sound a little better for my taste. Instead of doing gtr 1's
--18---15---18---15---18---15---18---|
I do Gtr 2's
--17----17---16----16---15----17----17---16----16---15----|
And it sounds just fine.

WHAT THE HELLS A TIED

WHAT THE HELLS A TIED NOTE!!!

A tied note means that the

A tied note means that the note is held not played. For instance, a quarter note tied to another quarter note is going to endure for a half note time, but the note is only struck once at the beginning.

this is ****ing good, but

4

this is ****ing good, but with slices at
------------12/15-------------14/17---|
--13---13-----------15---15-----------|
it could be better

Awesome

4

I love castlevania, and I love this tab