Cruel Angel's Thesis (Neon Genesis Evangelion) Guitar Tab

Submitted: Mar 20, 2014 by JordanVS

4.333335
Average: 4.3 (6 votes)
Download | Listen
Game: Neon Genesis Evangelion
Composer(s): Shiro Sagisu
Style: Arrangement, Fingerstyle

This song is also called Zankoku na Tenshi no Thesis

AutoScroll: Slow | Medium | Fast
A Cruel Angel's Thesis   
Neon Genesis Evangelion                                          
Zankoku na Tenshi no These - TV Size
Words by Neko Oikawa & Yoko Takahashi
Music by Hidetoshi Sato &  Toshiyuki O'mori
JordanVS

-Capo on the 3rd fret
-4/4
-Tempo : 80


     ^         ^             ^           ^             ^                       ^            
     Q    Q    E.  E.  E     E  E  E  E  E  E  Q       Q    Q    E.  E.  E     E  E  E  E   
E||-----------------------|--------3--1--0-----0----|--0----3----5----------|--3--3--0-----|
B||-------1----3---1---3--|--3--3-----------3-------|--1-------------3------|--1--------8--|
G||--2---------2----------|--4-----------0----------|--2-----------------5--|--0-----------|
D||--2---------3----------|--------------2----------|--2---------3----------|--2-----------|
A||--0---------0----------|--2-----------3----------|--0---------3----------|--3-----------|
E||-----------------------|--3----------------------|-----------------------|--------------|

		     
		     T = 125

  ^     ^                                                                                                 
  Q     H.              E  E  E  E  S E  E  S E     E  E  E  E  S E  S E  E     E  E  E  E  S E  E  S E   
---------------------|---------------------------|--------3--1--0----0-------|--0-----3-----5------------|
--8----10------------|--------1-----3----1----3--|--3--3--3-------3----------|--1-----1-----3----3----1--|
--------9------------|--2-----------2------------|--0--0--------0----0-------|---------------------------|
--7----10------------|--2-----------0-0--0--0----|---------------------------|--------------0-0--0--0----|
--8-----8------------|--0--0--0--3------------0--|-----------2--3-3--3-3--2--|--0--0--0--3------------0--|
---------------------|---------------------------|--3--3--3------------------|---------------------------|


                             ^                        ^                        ^                      
  E  E  E  E  S E  S Q       Q    E  S Q    E.  E     E.  E.  E  Q    E  E     E.  E.  E  E.  E.  E   
--3--3--0--3--3----5------|------------------------|------------------------|--0---1---0-------------|
--3--3--0--3--5----5------|-------1-------------1--|--1---3-----------------|--1----------3-------3--|
--------------------------|--0-------0-0-----------|--0-------0--0-------0--|--2----------4---5------|
--------------------------|--2---------2-----------|--0----------0----------|------------------------|
--------------0-0--0------|--3--------------3------|--2---------------------|--0---------------------|
--3--3--3--3---------3----|------------------------|--3---------------3-----|-------------3----------|


  ^                         ^          ^             ^          ^            ^                     
  E.  E.  E  Q    E  S S    E.  E.  E  Q.     S S    E.  E.  E  Q.     E     E.  E.  E  Q    Q     
--0---1---0--------------|------------------------|--1---0-------------0--|--0--------------------|
--1--------------------0-|--1---1---0--0------1-3-|----------3--1---------|------3---2--3---------|
--2----------2-------2---|--0----------0----------|--0----------0---------|--2---------------2----|
-------------2-----------|--0----------0----------|--2----------2---------|-------------3---------|
-------------------------|--3----------2----------|--3----------0---------|--2--------------------|
--1---------------1------|--3----------3----------|-----------------------|-----------------------|


  ^                       ^                        ^                        ^                      
  Q.     E  E.  E.  E     Q    E  S Q    E.  E     E.  E.  E  Q    E  E     E.  E.  E  E.  E.  E   
-----------------------|------------------------|------------------------|--0---1---0-------------|
---------0--0----------|-------1-------------1--|--1---3-----------------|--1----------3-------3--|
--2---------1----------|--0-------0-0-----------|--0-------0--0-------0--|--2----------4---5------|
--0-------------2---0--|--2---------2-----------|--0----------0----------|------------------------|
-----------------------|--3--------------3------|--2---------------------|--0---------------------|
--0---------0----------|------------------------|--3---------------3-----|-------------3----------|


  ^                         ^          ^             ^          ^            ^                      
  E.  E.  E  Q    E  S S    E.  E.  E  Q.     S S    E.  E.  E  Q.     E     E.  E.  E  E.  E.  E   
--0---1---0--------------|------------------------|--1---0-------------0--|--0--------------0---1--|
--1--------------------0-|--1---1---0--0------1-3-|----------3--1---------|------3---2--3----------|
--2----------2-------2---|--0----------0----------|--0----------0---------|--2----------2----------|
-------------2-----------|--0----------0----------|--2----------2---------|-------------3----------|
-------------------------|--3----------2----------|--3----------0---------|--2---------------------|
--1---------------1------|--3----------3----------|-----------------------|------------------------|


  Q    Q    Q    Q       E  S S E  E  E  S S E  E     E  S S E  E  E  S S E  E     E  S S E  E  E  S S E  E   
--0-------------------|----------------------------|----------------------------|----------------------------|
-----------------0----|--1----1----0--1----1----0--|--3----3----1--0---------0--|--1----1----0--3----0-------|
--2----1----2----1----|--2----2----0--2----2----0--|--4----4----2--0----2----0--|--2----2----0--2----0----2--|
--4----2----4---------|--2----2----0--2----2----0--|--5----5------------3-------|--0--0---0--0------------3--|
----------------------|----------------------------|---------------0--0---0--0--|----------------------------|
--0----0----0----0----|--1--1---1--1--1--1---1--1--|--0--0---0--0---------------|---------------3--3---3--3--|


  E  E  E  E  E  E  E  E     E  S S E  E  E  S S E  E     E  S S E  E  E  S S E  E   
--------------------3-----|----------------------------|----------------------------|
--3-----5-----6-----5-----|--1----1----0--1----1----0--|--3----3----1--0----1----3--|
--3-----5-----5-----------|--2----2----0--2----2----0--|--4----4----2--0----2----4--|
--5-----------------------|--2----2----0--2----2----0--|--5----5--------------------|
--------------------------|----------------------------|---------------0--0---0--0--|
--3--3--3--3--3--3--3--3--|--1--1---1--1--1--1---1--1--|--0--0---0--0---------------|


  E  S S E  E  E  S S E  E     H        E.  E.  E     E  E  E  E  S E  E  S E     E  E  E  E  S E  S E  E   
--0----1----0---------------|--0--------0---2---4--|---------------------------|--------3--1--0----0-------|
---------------3----1----3--|--0--------0---3---5--|--------1-----3----1----3--|--3--3--3-------3----------|
--2----2----2--2----2----2--|--1--------1---2---4--|--2-----2-----2----2----2--|--0--0-----0-------0-------|
----------------------------|----------------------|--2-----------0-0--0--0----|---------------------------|
--2--2---2--2--2--2---2--2--|----------------------|--0--0--0--3------------0--|-----------2--3-3--3-3--2--|
----------------------------|--0--------0---0---0--|---------------------------|--3--3--3------------------|


  E  E  E  E  S E  E  S E     E  E  E  E  S E  S Q       E  E  E  E  S E  E  S E   
--0-----3-----5------------|--------------------------|---------------------------|
--1-----------3----3----1--|--0--0-----0--3-1--1-L----|--------1-----3----1----3--|
--------2----------2----2--|--0--0--2--0--0-0--0-L----|--2-----2-----2----2----2--|
--------------0-0--0--0----|--------------------------|--------------0-0--0--0----|
--0--0--0--3------------0--|-----------2--3-3--3-2----|--0--0--0--3------------0--|
---------------------------|--3--3--3-----------------|---------------------------|


  E  E  E  E  S E  S E  E     E  E  E  E  S E  E  S E     E  E  E  E  S E  S Q     
--------3--1--0----0-------|--0-----3-----5------------|--3--3--0--3--3----5------|
--3--3--3-------3----------|--1-----------3----3----1--|--3--3--0--3--5----5------|
--0--0-----0-------0-------|--------2----------2----2--|--------------------------|
---------------------------|--------------0-0--0--0----|--------------------------|
-----------2--3-3--3-3--2--|--0--0--0--3------------0--|--------------0-0--0------|
--3--3--3------------------|---------------------------|--3--3--3--3---------3----|


  E  E  E  E  S E  E  S E     E  E  E  E  S E  S E  E     E  E  E  E  S E  E  S E     E  E  E  E  E.  S Q     
---------------------------|--------3--1--0----0-------|--0-----3-----5------------|--3--3--0--3--3---5-L----|
--------1-----3----1----3--|--3--3--3-------3----------|--1-----------3----3----1--|--3--3--0--3--3---5-L----|
--2-----2-----2----2----2--|--0--0-----0-------0-------|--------2----------2----2--|--0--0--0--0--0---5-L----|
--2-----------0-0--0--0----|---------------------------|--------------0-0--0--0----|-------------------------|
--0--0--0--3------------0--|-----------2--3-3--3-3--2--|--0--0--0--3------------0--|------------------0-L----|
---------------------------|--3--3--3------------------|---------------------------|--3--3--0--3--3----------|


  W                  
--L----------------||
--L----------------||
--L----------------||
-------------------||
--L----------------||
-------------------||




Duration Legend
---------------
W - whole
H - half
Q - quarter
E - 8th
S - 16th
T - 32nd
X - 64th
. - note dotted
|-n-|  - n-tuplets


Tablature Legend
----------------
L - tied note
^ - brush up
v - brush down
Login or Register to remove this ad.

1 comment on Cruel Angel's Thesis

Still haven't watched

Still haven't watched Evangelion, probably should get on that...

Will try the tab out when I get home, it's going to kick my butt I think :P