Ads

Legend of the Wind (NausicaƤ of the Valley of the Wind) Guitar Tab

Submitted: Feb 10, 2014 by Pupos

5
Average: 5 (2 votes)
Download | Listen
Game: NausicaƤ of the Valley of the Wind
Composer(s): Joe Hisaishi
Style: Arrangement, Fingerstyle

Click here for a video example.

AutoScroll: Slow | Medium | Fast
Title: Nausicaa OST
Artist: [arr. by Roman Averyanov]
Music: Joe Hisaishi
Tempo = 85
Steel Guitar

Legend
L - tied note
x - dead note
h - hammer on/pull off
b - bend
s - slide
~ - vibrato
g - ghost note
> - accentuated note
t - trill
M - palm mute
. - staccato
P - popping (bass)
S - slapping (bass)
+ - tapping
W - wide vibrato
< - fade in
w - whammy bar
= - tremolo picking
v - brush up
^ - brush down
V - pick stroke up
n - pick stroke down


E ||---|----|----|----------------------------|----------------------------|
B ||---|----|----|----------------------------|-----------------------1----|
G ||o--|----|----|-----------------------0----|--2-----------------2-------|
D ||o--|----|----|--------------------3-------|----------------------------|
A ||---|----|----|----------------------------|-----0--------3-------------|
D ||---|----|----|----------------------------|--0-----2--3----------------|


----------------------------|----------------------------|
--0-------------------------|----------------------------|
-----------------2L-2--0----|--2-------------------------|
----------------------------|----------------------------|
-----0--------2-------------|-----0--------3-------------|
--0-----2--3----------------|--0-----2--3----------------|


----------------------------|----------------------------|
----------------------------|-----------------------1----|
-----------------------0----|--2-------------------------|
--------------------3-------|----------------------------|
-----0--------3-------------|-----0--------3-------------|
--0-----2--3----------------|--0-----2--3----------------|


----------------------------|----------------------------|
--3--------1--0-----1-------|----------------------------|
----------------------------|--2-------------------------|
----------------------------|----------------------------|
-----0--------2-------------|-----0--------3-------------|
--0-----2--3----------------|--0-----2--3----------------|


----------------------------|----------------------------|
-----------------------1----|----------------------------|
----------------------------|--0-------------------------|
----------------------------|-----------------------3----|
-----0--------3-------------|-----0--------3-------------|
--0-----2--3----------------|--0-----2--3----------------|


----------------------------|----------------------------|
----------------------------|--0-------------------------|
--------------0L----0--2----|----------------------------|
--2--------3----------------|--------------0-------------|
-----0--------3L----3-------|-----2-----------2----------|
--0-----2--3----------------|--0-----0--5--------5--0----|


----------------------------||
--------------1-----3-------||
----------------------------||
----------------------------||
-----2-----0--2-------------||
--0-----0-------------------||


-0-----------------------------------0-----------1-----------3-------------|
-1-------------------------------------------------------------------------|
o2-------------------------------------------------------------------------|
o3-----------------3-----------------3-------------------------------------|
----------0-----------------0----------------------------------------------|
-0-------------------------------------------------------------------------|


--0-------------------------|
--1-----------------1--3----|
--2-------------------------|
--3-----2-----2-------------|
-----0-----0----------------|
--0-------------------------|


--0-----------------------------------0-----------1-----------3-------------|
--1-------------------------------------------------------------------------|
--2-------------------------------------------------------------------------|
--3-----------------3-----------------3-------------------------------------|
-----------0-----------------0----------------------------------------------|
--0-------------------------------------------------------------------------|


--0-------------------------|
--1-----------------1-------|
--2-------------------------|
--3-----2-----2-------------|
-----0-----0----------------|
--0-------------------------|


----------------------------------------------------|
--3--5--3--1--3-------------------------------------|
--3-----------------5g----3g----------3-------------|
--x-----------------------------3-----------3-------|
--1-------------------------------------------------|
----------------------------------------------------|


--0g----------1g------------|--3g----------5g------------|
-----------------3--1-------|--1-------------------------|
--------3--------------3----|--------------2-------------|
-----3-----3----------------|--------3-----3-----3-------|
--1-----------1-------------|-----3-----3-----3-----3----|
----------------------------|--3-------------------------|


----------------------------|--------3-----1-------------|
-----------------1----------|--------------------4-------|
--------------------3--2----|--3-----0-------------------|
--3g----3-----3-------------|--1g-1--------------1g------|
--3g-3-----3----------------|--1g-------------1g----1g---|
--3-------------------------|--1-------------------------|


----------------------------|
--3-----------1-------------|
-----------------3--2--0----|
--0g----0-------------------|
-----1-----1----------------|
--1-----------1-------------|


--------------------------------------------------------------------------------
--------------------------------------------------------------------------------
--2--------3--------2--------0--------2-----------------------------------------
--------------------------------------------------------------------------0-----
--------------------------------------------------------0-----------------------
--0-----------------------------------------------------------------------------


--------------------------------------------------------------------|
--------------------------------------------------------------------|
--------------------------------------------------------------------|
--------------------------------------------------------------------|
------------0h----1h----3h----5-----------------3h-------1----------|
--------------------------------------------------------------------|


----------------------------|-----------------------1----|
----------------------------|--3-------------------------|
--------------3-----5-------|--0-------------------------|
-----------0-----0-----0----|--0--0--------3s----2-------|
--0-----0--------5-----5----|--5-----0--1-----------1----|
-----4--------4-----4-------|--5-------------------------|


--0-------------------------|----------------------------|
-----------------3-----1----|--3-------------------------|
----------------------------|--------------------0--3----|
-----0--------2-----0-------|-----0--------3-----0--3----|
--------0--1-----------1----|--------0--1----------------|
--5-------------------------|--5-------------------------|


----------------------------|-----------------------1----|
--------------------1-------|--3-------------------------|
--7--3--------3-------------|--0-------------------------|
--0--0--------3g----2-------|--0--0--------3s----2-------|
--------0--1-----------1----|--5-----0--1-----------1----|
----------------------------|--5-------------------------|


--3--------1--0-----1-------|----------------------------|
----------------------------|--3-------------------------|
----------------------------|--------------------0--3----|
-----0--------2-----0-------|-----0--------3-----0--3----|
--------0--1-----------1----|--------0--1----------------|
--5-------------------------|--5-------------------------|


--------------------1-------|----------------------------|
----------------------------|--1-------------------------|
--7--3----------------------|--------------------2g-3----|
--0--0--------3-----2-------|-----0--------3--------0g---|
--------0--1-----------1----|--------0--3----------------|
----------------------------|--5-------------------------|


----------------------------|-----------------0g---------|
--------------1-----3-------|--5-----------5-------------|
--2--------3--------2g------|--0--------0--------0g------|
-----0--------3--------0g---|--5-----5--------------5g---|
--------0--3----------------|--3--3----------------------|
--5-------------------------|--5-------------------------|


--------------------3-------|
--5--------5--6-----6-------|
--0-----------0--0--3--3----|
--5-----5-----5--5--5--5----|
--3--3----------------------|
--5-----------3-----3-------|


--5-----------------------------------5-----3-------|
--3-----------------------------3-------------------|
--3-------------------------------------------------|
--3-----------7-----5--3----------------------------|
--5-----5-----------------7-------------------------|
--5-------------------------------------------------|


--5--------------------3----|
--3-----------------6-------|
--3-------------------------|
--3-----7--5--7-------------|
--5--5----------------------|
--5-------------------------|


--5-----------------------------------5-----3-------|
--3-----------------------------3-------------------|
--3-------------------------------------------------|
--3-----------7-----5--3----------------------------|
--5-----5-----------------7-------------------------|
--5-------------------------------------------------|


--5-------------------------|
--3-----------------6-------|
--3-------------------------|
--3-----7--5--7-------------|
--5--5----------------------|
--5-------------------------|


--3--5--3--1--3-------------------------------------|
--4g----------------3-----1-------------------------|
--3-----------------------------3L----3-----2--3----|
--1-------------------------------------------------|
--1-------------------------------------------------|
--1-------------------------------------------------|


-----------------3--1-------|--1--------------------1----|
--3--------------------4----|--3--------1--3--1--3-------|
-----------0--0-------------|--3-----3-------------------|
--------------1-------------|--3--3----------------------|
--------1-----1-------------|--1-------------------------|
-----1--------1-------------|----------------------------|


--6-------------------------|----------------------------|
-----6L-6--------6----------|--4--------------------4----|
-----------7--------8--7----|--5-----------5-----5-------|
-----------8L-8-------------|--6-----6--8-----8----------|
-----------8----------------|--6--6----------------------|
----------------------------|----------------------------|


--4-------------------------|
-----4-----4-----4--3--1----|
-----------5----------------|
-----------6----------------|
-----------6----------------|
----------------------------|


----------------------------------------------------|
--3--4--3--1--3-------------------------------------|
--0-----------------------0-------------------------|
--4-----------------4-----------4-----0--1--0-------|
--0--------------------------------------------3----|
--0-------------------------------------------------|


-----2--2--2--2-------------||
-----3--3--3--3-------------||
-----2--2--2--2-------------||
--0--------4--4-------------||
-----------0--0-------------||
-----------0--0-------------||

Login or Register to remove this ad.