Ads

Aishiteru (Natsume Yuujinchou) Guitar Tab

Submitted: Jul 30, 2014 by Basisti94

5
Average: 5 (5 votes)
Download | Listen
Game: Natsume Yuujinchou
Composer(s): Makoto Yoshimori
Style: Arrangement, Fingerstyle

AutoScroll: Slow | Medium | Fast
               Aishiteru
                                
Natsume Yuujinchou
Kourin
Guitar Arrangement by Basisti94 (Miro Laaksonen)
28.7.2014



Capo 1
Tempo ~ 80
                            ^                           ^  
     E  E  E  E  E  E  E  S S    E  E  E  E  E  E  E  S S  
E||--0--------0--1--0-------0-|--L--------0--1--0---------|
B||--------1-----------3--1---|--------------------3--1-0-|
G||-----0-------------------2-|-------------------------0-|
D||-------------------------3-|--------3----------------0-|
A||--3------------------------|-----3---------------------|
E||---------------------------|--1------------------------|


  E  S S E  S S E  E  E  S T  T    E  E  E  Q    E  E  E   
--------------------------------|-----------0----1--0-----|
--L----0----0-3-L--0-----0------|--------1-------------1--|
--L------2------------2----0h-2-|--0----------------------|
--L--0--------------------------|-----2-------------------|
--------------------------------|--3----------------------|
--3-----------------------------|-------------------------|


  ^                      ^                           ^  
  E  E  E  E  E  E  E  S S    E  E  E  E  E  E  E  S S  
--0--------0--1--0-------0-|--L--------0--1--0---------|
--1-----1-----------3--1---|--------------------3--1-0-|
--0--0-------------------2-|-------------------------0-|
-------------------------3-|--------3----------------0-|
--3------------------------|-----3---------------------|
---------------------------|--1------------------------|


  E  S S E  S S E  E  E  S S    E  E  E  E  E  E  E  E   
--------------0-L------------|-----------1--0-----------|
--L----0----0------3--1--0-1-|--1--------------1--0--1--|
--L------2------------0------|--------0-----------0-----|
--L--0-----------------------|-----2--------------------|
-----------------------------|--3--------------------3--|
--3--------------------------|--------------------------|


  E  S S E  S S E  S S E  S S    E  S S E  S S E  S S E  S S  
--3---------------------------|--3---------------------------|
-----1-1-L--1-0-L--1-1-L----1-|-----1-1-L--1-0----1-1------1-|
--------------------------0---|--------------------------0---|
---------2-------------2------|-----------------------0------|
--0---------------------------|---------3--------------------|
----------------3-------------|--1-------------3-------------|


  E  S S E  E  E  E  E  S S    E  E  E  E  E  S S E  S S  
--3---------3--5--3--1--3-3-|--L------------------0--1-3-|
-----1-1--------------------|-----------1--1--3----------|
---------------------0------|-------------------0--------|
---------2------------------|--------3--------0----------|
--0-------------------------|-----3----------------------|
---------------3------------|--1-----------3-------------|


  E  S S S S E  E  S S E  S S    E  S S S S E  E  S S E  E   
--L--------------------0--1-3-|--L--------------------0-----|
---------1---1--1--3----------|---------0---1--1--3------1--|
-------0---0---------0--------|-------0---0---------0-------|
-----2-------------2----------|-----2-------------2---------|
--3-------------3---------3---|--3-------------3---------3--|
------------------------------|-----------------------------|


  E  S S S S E  E  S S E  E     E  S S S S E  E  S S E  E   
--8-------------7------3--0--|--3-----------------------3--|
---------5-------------------|-------------------0---------|
-------5---5---------5-------|---------0-------------0-----|
-----7-------7-----7---------|-------2---2---------2-------|
--0-------------0---------0--|-----2-------2-----2---------|
-----------------------------|--0-------------0---------0--|


  E  S S E  E  E  S S S S E     E  S S E  S S E  S S E  E   
--1--3---1--0----------------|--0--------------------------|
-------3-------3-------------|-----3-1-L--0-1-L---------1--|
-----2------2---------0---0--|---------0-------------0-----|
--0-----------------0---0----|----------------1----1----1--|
------------------2-------2--|-----2-------------3---------|
---------------3-------------|--0---------0----------------|


  E  S S S S E  E  S S S S S S    E  S S S S S S E  S S E  S S  
-------------0--1------1-----3-|--L---------------------0--1-3-|
--1------1-----------3---3-----|---------0---1---1--3----------|
-----2-------------2-------2---|-------0---0----------0--------|
--0----0---0----0--------------|-----0-------0------0----------|
-------------------------------|-------------------------------|
-------------------------------|--3------------3-3-------------|


  E  S S S S S S E  S S S S S S    E  S S S S S S E  S S S S S S  
--L---------------------0---1-3-|--L---------------------0-------|
---------1---1---1--3-----------|---------0---1---1--3-------1---|
-------0---0----------0---0-----|-------0---0----------0---0-----|
-----2---------2----2-----------|-----2---------2----2---------2-|
--3--------------3--------------|--3--------------3--------------|
--------------------------------|--------------------------------|


  E  S S S S S S  E  S  S E  S  S    E  S S S S E  E  S S S S E   
--8--------------10--8-------8----|-----------------------0---3--|
-------5---5---5-------12------12-|--L------0------1-------------|
-----5---5---5--------------------|-------0---0---------2---2----|
--4-------------------------------|-------------2-----2-------2--|
------------------8-------8-------|-----7----------0-------------|
----------------------------------|--0---------------------------|


                                                ^           
  E  S S S S E   E  S S S S E     E  S S E  S S Q.     S S  
--1--3---5---8--10------8------|--3------0--3-8------------|
-------3--------------8---8----|-------0---------------1-1-|
-----2--------------7-------7--|-----0----------0----------|
--0--------0-----5-------------|---------------------------|
-------------0-----------------|----------------6----------|
-------------------------------|--0---------0--------------|


  ^             ^                                       
  E  S S E  S S E  E  E  S S    E  E  E  E  Q.     S S  
--0--------------------------|--------------3------8-8-|
-----3-3-L----0-1--0-----0-1-|--L--------1-------------|
--2---------2---2-----2------|--------0----------------|
--0-------------3------------|-----2-------------------|
-----------------------------|--3----------------------|
----------------3------------|-------------------------|


   E   S  S E  S S E  E  E  S S    W                                          
--12--10-10-L--5-7-8--7--5--7-8-|--L----------------|-----------|-----------||
--------------------------------|-------------------|-----------|-----------||
-------------------0------------|-------------------|-----------|-----------||
---0----------------------------|-------------------|-----------|-----------||
--------------------------------|-------------------|-----------|-----------||
--------------------------------|-------------------|-----------|-----------||




Duration Legend
---------------
W - whole
H - half
Q - quarter
E - 8th
S - 16th
T - 32nd
X - 64th
. - note dotted
|-n-|  - n-tuplets


Tablature Legend
----------------
L - tied note
x - dead note
g - grace note
(n) - ghost note
> - accentuded note
NH - natural harmonic
AH - artificial harmonic
TH - tapped harmonic
SH - semi harmonic
PH - pitch harmonic
h - hammer on
p - pull off
b - bend
br - bendRelease
pb - preBend
pbr - preBendRelease
brb - bendReleaseBend
\n/ - tremolo bar dip
\n - tremolo bar dive
-/n - tremolo bar Release up
/n\ - tremolo bar inverted dip
/n - tremolo bar return
-\n - tremolo bar Release down
S - shift slide
s - legato slide
/ -  slide into from below or out of upwards
\ -  slide into from above or out of downwards
~ - vibrato
W - wide vibrato
tr - trill
TP - tremolo picking
T - tapping
S - slap
P - pop
< - fade in
^ - brush up
v - brush down
Login or Register to remove this ad.

3 comments on Aishiteru

Great!

5

My girlfriend is a big Natsume fan, and even with my half-arsed not-even-a-year self-learned guitarring she could pick this song out directly! Speaks of good tabbing :)

Really fun to play, and not too difficult - line 5-6 is especially fun!

Nice!!!!!

Nice!!!!!

totally accurate

5

Great song and a great tab.