Sadness and Sorrow (Naruto) Guitar Tab

Submitted: Jul 15, 2008 by Kabukibear (Last updated: Oct 18, 2009)

4.94737
Average: 4.9 (19 votes)
Download | Listen
Game: Naruto
Composer(s): Toshiro Masuda
Style: Arrangement, Fingerstyle, Natural harmonics
Series: Naruto

AutoScroll: Slow | Medium | Fast
Sadness and Sorrow (Abridged)                                
~Naruto~
Composed by: Toshiro Masuda
Arranged by: Justin Lincoln



     ^                                    
     |--3--|  |--3--|  |--3--|  |--3--|   
     E  E  E  E  E  E  E  E  E  E  E  E   
E||--2--------2--------2--------2--------|
B||--0-----------------------------------|
G||--0-----0--------0--------0--------0--|
D||--2--2--------2--------2--------2-----|
A||--------------------------------------|
E||--------------------------------------|


                                         ^                                    
  |--3--|  |--3--|  |--3--|  |--3--|     |--3--|  |--3--|  |--3--|  |--3--|   
  E  E  E  E  E  E  E  E  E  E  E  E     E  E  E  E  E  E  E  E  E  E  E  E   
--0--------0--------0--------0--------|--0--------0--------0--------0--------|
--------------------------------------|--0-----------------------------------|
--------0--------0--------0--------0--|--0-----0--------0--------0--------0--|
-----2--------2--------2--------2-----|--4--4--------4--------4--------4-----|
--------------------------------------|--------------------------------------|
--0-----------------------------------|--------------------------------------|


                                         ^                                    
  |--3--|  |--3--|  |--3--|  |--3--|     |--3--|  |--3--|  |--3--|  |--3--|   
  E  E  E  E  E  E  E  E  E  E  E  E     E  E  E  E  E  E  E  E  E  E  E  E   
--------------------------------------|--------------------------------------|
--3--------3--------3--------3--------|--3--------3--------3--------3--------|
--------0--------0--------0--------0--|--2-----2--------2--------2--------2--|
-----4--------4--------4--------4-----|--2--2--------2--------2--------2-----|
--------------------------------------|--0-----------------------------------|
--0-----------------------------------|--------------------------------------|


                                         ^                                    
  |--3--|  |--3--|  |--3--|  |--3--|     |--3--|  |--3--|  |--3--|  |--3--|   
  E  E  E  E  E  E  E  E  E  E  E  E     E  E  E  E  E  E  E  E  E  E  E  E   
--------------------0--------5--------|--5--------5--------5--------5--------|
--1--------1--------------------------|--7-----7--------7--------7--------7--|
--------2--------2--------2--------2--|--4--4--------4--------4--------4-----|
-----2--------2--------2--------2-----|--4-----------------------------------|
--0-----------------------------------|--------------------------------------|
--------------------------------------|--------------------------------------|


  ^                   NH     NH      ^                       
  |--3--|  |--3--|                                           
  E  E  E  E  E  E    Q      Q       E  E  E  E  E  E  Q     
--7--------7----------7-----------|--0-----3--2--L----------|
--4-----4--------4-----------7----|--0--------------3--L----|
--4--4--------4-------------------|--0----------------------|
--4-------------------------------|-----2-------------------|
----------------------------------|-------------------------|
----------------------------------|--0----------------------|


  E  E  E  E  E  E  Q         S S E  E  E  E  E  E  E   
--------3--2--L----------||---2-0----------------0--3--|
-----------------0--L----||-------0-----3--L-----------|
-------------------------||*------------0--L--0--------|
-----2-------------------||*---------2--4--L-----------|
-------------------------||----------------------------|
--0----------------------||---0------------------------|


  ^                          ^                 ^      
  E  E  E  E  E  E  E  E     E  E  E  E  E  E  E  E   
--5-----0-----------------|--3--------3--2--3--5-----|
--0--------1--0-----------|--3-----3-----3--3--3--3--|
--------0--------0--------|--2--2--------2--0--------|
-----2--------------2-----|--0-----------0--2--4-----|
--3--------------------3--|--------------------------|
--------------------------|--------------------------|


  ^           ^                        ^                      
  E  E  E  E  E  E  E  E     S S E  E  E  S S S  S  S S S  S  
--7-----------5-----2-----|--2-0------------------------0h-3-|
--0-----0-----3-----3-----|--0---0-----3--L-----------0------|
--0--------0--2--2--------|------------0--L-0----------------|
-----0--------0--------4--|---------2--4--L---4p-0h-2--------|
--------------------------|----------------------------------|
--3-----------------------|--0-------------------------------|


  ^                                    ^                    ^      
  E  S E  S S  S S  S S  S S S S  S    E  E  S S S S E  S S E  E   
--5----0---------3p-2--------0------|--3---------3---2--3---5-----|
--0-------0-3s-5------0h-3-L---3p-0-|--3-----3-------3--3---3--3--|
--0---------------------------------|--2--2--------2-2----0-0-----|
-----2------------------------------|--0-------0-----0--2---4-----|
--3------------------------3--------|-----------------------------|
------------------------------------|-----------------------------|


  ^                                                  
  E  E  E  E  E  E  Q       E  E  E  E  E  E  E  E   
--0-----3--2--L----------|--------3--2--L--0--2--3--|
--0--------------3--L----|-----------------0--3--0--|
--0----------------------|-----------------0--2--5--|
-----2-------------------|-----2--------------------|
-------------------------|--------------------------|
--0----------------------|--0--------------0--2--3--|


  ^                      ^          ^                    ^      
  S S S S E  S S S S S S S S S S    E  S S S S S S E  E  E  E   
--5---7---0--3-------------------|--0--------------------0--2--|
--0-------3----------7---5-------|--0--0-----0--------0--3-----|
--0-0---5-4--------------0-7-0---|--0----0-----0---------4-----|
-------------------4---4-4-----4-|---------4-----4-2-----4-----|
--3-------3----3-5-------5-------|-----------------------2-----|
---------------------------------|--0--------------------------|


                                    ^               ^                
  S S S S S S S S S S S S S S E     S S S S S S S S S S S S S S S S  
--3---5---3-----------0-2-7---5--|--7---------------5---------------|
--0-------3---7------------------|--0---0---0-------3---3-5-3-------|
--0-0---0-5-4-------2-------7----|--0-0---5---0---0-2-2-------2-----|
------------------0-------0------|--------------0---------------4-0-|
--3-------3-----3----------------|----------------------------------|
---------------------------------|--3---------------2---------------|


  ^                      ^          ^                            
  S S S S E  S S S S S S S S S S    S S S S S S S S E  E  E  E   
--5---7---0--3-------------------|--0---------------------0--2--|
----------3----------7---5-------|--0---0-------0------0--3-----|
--0-0---5-4--------------0-7-0---|--0-0---0---0---0-------------|
-------------------4---4-4-----4-|----------4-------2-----------|
--3-------3----3-5-------5-------|------------------------2-----|
---------------------------------|--0---------------------------|

                                                      1st Ending ---------
  ^                 ^                                  ^                     
  E  E  E  E  E  E  Q       E  E  E  E  E  E  E  E     H        Q    Q       
--3--5--3--2--L----------|--0-----------------2-----|--0--------0----3-----||
--0-----------------0----|--------1-----3--------3--|--0-------------------||
--0-----------------0----|--------------------------|--0------------------*||
-----------------0--4----|-----2-----2-----4--------|--2------------------*||
--3-----------2----------|--0-----------2-----------|--3-------------------||
-------------------------|--------------------------|----------------------||

  2nd Ending --------
  ^        ^                                       ^                  
  H        Q    Q       E  E  E  E  E  E  E  E     W                  
--0--------0---------|--0-----------------2-----|--0----------------||
--0--------0----3----|--------1-----3--------3--|--0----------------||
--0--------0---------|--------------------------|--0----------------||
--2--------4---------|-----2-----2-----4--------|--2----------------||
--3--------5---------|--0-----------2-----------|--2----------------||
---------------------|--------------------------|--0----------------||




Duration Legend
---------------
W - whole
H - half
Q - quarter
E - 8th
S - 16th
T - 32nd
X - 64th
. - note dotted
|-n-|  - n-tuplets


Tablature Legend
----------------
L - tied note
NH - natural harmonic
AH - artificial harmonic
h - hammer on
p - pull off
s - legato slide
^ - brush up
Login or Register to remove this ad.

14 comments on Sadness and Sorrow

Naruto has such sad, but

5

Naruto has such sad, but great music. Awesome arrangement like always. It kinda reminds me of another arrangement you did, but I can't remember which one...

Reminiscence maybe? It's

Reminiscence maybe? It's got that sad, dark feel...

An arrangement in standard?!

5

An arrangement in standard?!

huh?

huh?

I believe Mellotron is

I believe Mellotron is joking about the Standard tuning, since we got used to your Dropped D tunings over the past time. :D

oh lolol, geez XD

oh lolol, geez XD

nice arrangement kabukibear

5

nice arrangement kabukibear , is a little hard to me play that song because im a begginer :P

Really good arrangement, as

5

Really good arrangement, as always !
Thanks dude.

Emotive xD Nice arrangement

Emotive xD
Nice arrangement like allways, Kabuki ;)

Any chance you guys have

Any chance you guys have some tips to make my learning this song easier? I just started a few days ago and I'd like to learn this music but the fingerings are too quick for me.
And what are Brush ups? I do have some guitar background previously.

music sheet

can i PLEAsE get a music sheet anywhere (for guitar of course)
I cant find any site with sheets. Everywhee is just tabs

Check the zip file at the top

Check the zip file at the top of this page where it says download. There is a PDF file of the tab.

THX

WOW thanx i thought there was only download for the music to listen ^^
THANX

Thank you very much for this

Thank you very much for this AWESOME tabbing!