Ads

Alone (Naruto) Guitar Tab

Submitted: Aug 02, 2011 by all_inu.sp

5
Average: 5 (13 votes)
Download | Listen
Game: Naruto
Composer(s): Toshiro Masuda
Style: Arrangement, Fingerstyle
Series: Naruto

AutoScroll: Slow | Medium | Fast
Alone
Naruto
Tabbed by all_inu.sp




     H.           Q       E  E  E  E  E  E  E  E     E  E  E  Q.     Q     
E||--------------------|--0--------0-----------0--|-----------------------|
B||--------------------|--1-----1-----3--------0--|--1--------1-----------|
G||--------------------|-----0--------------0-----|--------2---------0----|
D||--------------------|-----------------0--------|-----2-----------------|
A||--------------------|--3-----------2-----------|--0--------------------|
E||---------------3----|--------------------------|-----------------------|


  E  E  E  E  E  E  E  E     E  E  E  Q    E  E  E     E  E  E  E  E  E  E  E   
--------------------------|-------------------0-----|--0--------0-----------0--|
-----------1-----------0--|-----------1-------------|--1-----1-----3--------0--|
--2-----2-----0-----0-----|--2-----2-------2-----2--|-----0--------------0-----|
-----3-----------0--------|-----2-------------------|-----------------0--------|
--------------------------|--0----------------------|--3-----------2-----------|
--1-----------3-----------|-------------------------|--------------------------|


  E  E  E  E  E  E  E  E     E  E  E  E  E  E  E  E     E  E  E  E  Q    Q     
--------------------0-----|--------------------------|------------------------|
--1--------0--1-----------|-----------1--0-----0-----|-----------0--1---------|
--------2--------2-----2--|--2-----2--------------0--|--2-----2---------------|
-----2--------------------|-----3-----------0--------|-----2------------------|
--0-----------------------|--------------------------|--0---------------------|
--------------------------|--1-----------3-----------|------------------------|


  E  E  E  E  E  E  E  E     E  E  E  E  E  E  E  E   
--------------------------|--------------3-----------|
--------------1-----------|--------0--3-----0--3-----|
--------2-----------2-----|-----0-----------------0--|
-----3-----3-----3-----3--|--------------------------|
--------------------------|--------------------------|
--1-----------------------|--3-----------------------|


  E  E  E  E  E  E  E  E     E  E  E  E  E  E  E  E   
--------------------------|--------------3-----------|
--------------1-----------|--------0--3-----0--3-----|
--------2-----------2-----|-----0-----------------0--|
-----3-----3-----3-----3--|--------------------------|
--------------------------|--------------------------|
--1-----------------------|--3-----------------------|


  E  E  E  E  E  E  E  E     E  E  E  E  E  E  E  E   
--------------------------|--------------3-----------|
--------------1-----------|--------0--3-----3--0-----|
--------2-----------2-----|-----0-----------------0--|
-----3-----3-----3-----3--|--------------------------|
--------------------------|--------------------------|
--1-----------------------|--1-----------------------|


  E  E  E  E  E  E  E  E     H.           Q       E  E  E  E  E  E  E  E   
--------------1-----------|--------------------|--0--------0-----------0--|
-----------1--------1-----|--0-----------------|--1-----1-----3--------0--|
--------2--------2--------|--0-----------------|-----0--------------0-----|
-----3-----------------3--|--0-----------------|-----------------0--------|
--------------------------|--------------------|--3-----------2-----------|
--1-----------------------|---------------3----|--------------------------|


  E  E  E  Q.     Q       E  E  E  E  E  E  E  E     E  E  E  Q    E  E  E   
-----------------------|--------------------------|-------------------0-----|
--1--------1-----------|-----------1-----------0--|-----------1-------------|
--------2---------0----|--2-----2-----0-----0-----|--2-----2-------2-----2--|
-----2-----------------|-----3-----------0--------|-----2-------------------|
--0--------------------|--------------------------|--0----------------------|
-----------------------|--1-----------3-----------|-------------------------|


  E  E  E  E  E  E  E  E     E  E  E  E  E  E  E  E   
--0--------0-----------0--|--------------------0-----|
--1-----1-----3--------0--|--1--------0--1-----------|
-----0--------------0-----|--------2--------2-----2--|
-----------------0--------|-----2--------------------|
--3-----------2-----------|--0-----------------------|
--------------------------|--------------------------|


  E  E  E  E  E  E  E  E     E  E  E  E  E  E  Q       E  E  E  E  E  E  E  E   
--------------------------|-------------------------|--------------------------|
-----------1--0-----0-----|-----------0--1----------|-----------1--0-----0-----|
--2-----2--------------0--|--2-----2--------2-------|--2-----2--------------0--|
-----3-----------0--------|-----2--------------2----|-----3-----------0--------|
--------------------------|--0----------------------|--------------------------|
--1-----------3-----------|-------------------------|--1-----------3-----------|


  E  E  E  E  E  E  Q       E  E  E  E  E  E  E  E     E  E  E  E  E  E  E  E   
--------------------0----|--------------------------|--------------------------|
-----------0--1----------|-----------1--0-----0-----|--------------1-----------|
--2-----2----------------|--2-----2--------------0--|--2-----2-----------2-----|
-----2-----------2-------|-----3-----------0--------|-----3-----3-----3-----3--|
--0-----------3----------|--------------------------|--0-----------------------|
-------------------------|--1-----------3-----------|--------------------------|


  E  E  E  E  E  E  E  E     E  E  E  E  E  E  E  E     E  E  E  E  Q    Q      
--------------0-----------|--------------------------|------------------------||
-----------1--------------|--------------1-----------|-----------1------------||
--------2-----------2-----|--------2-----------2-----|--------2-----2---------||
-----3-----------3-----3--|-----3-----3-----3-----3--|-----3------------------||
--------------------------|--------------------------|------------------------||
--1-----------------------|--1-----------------------|--1---------------------||




Duration Legend
---------------
W - whole
H - half
Q - quarter
E - 8th
S - 16th
T - 32nd
X - 64th
. - note dotted
|-n-|  - n-tuplets


Tablature Legend
----------------
L - tied note
x - dead note
g - grace note
(n) - ghost note
> - accentuded note
NH - natural harmonic
AH - artificial harmonic
TH - tapped harmonic
SH - semi harmonic
PH - pitch harmonic
h - hammer on
p - pull off
b - bend
br - bendRelease
pb - preBend
pbr - preBendRelease
brb - bendReleaseBend
\n/ - tremolo bar dip
\n - tremolo bar dive
-/n - tremolo bar Release up
/n\ - tremolo bar inverted dip
/n - tremolo bar return
-\n - tremolo bar Release down
S - shift slide
s - legato slide
/ -  slide into from below or out of upwards
\ -  slide into from above or out of downwards
~ - vibrato
W - wide vibrato
tr - trill
TP - tremolo picking
T - tapping
S - slap
P - pop
< - fade in
^ - brush up
v - brush down
Login or Register to remove this ad.

3 comments on Alone

Nice!

You did a really great job ^_^ I like it :D

Great

Love it ! :D

Great. ^_^

5

Great. ^_^