Ads

Yamagasumi (Mountain Haze) - Easy (Naruto Shippuuden) Guitar Tab

Submitted: Aug 19, 2017 by scarecrowlol

5
Average: 5 (4 votes)
Download | Listen
Game: Naruto Shippuuden
Composer(s): Yasuharu Takanashi
Style: Arrangement, Fingerstyle
Series: Naruto

AutoScroll: Slow | Medium | Fast
Title: Yamagasumi (Mountain Haze)
SubTitle: Naruto Shippuden
Artist: Takanashi Yasaharu
Tabber: Mitch Jackson
Tempo = 57
T/S = 4/4



   ♪♫•*¨*•.¸¸ CAPO 3 ¸¸.•*¨*•♫♪


     ^                             ^                            ^                            ^
     E  E  H           S S E       E  E  H                      E  E  H           E  E       E  E  H.
E |--------3--------------------|--5-------------------------|--3h-5--0-------------------|-----0----------------------|
B |--3h-5--------------3-Ls5----|--5--8--5-------------------|--3-----------------3-------|--3-------------------------|
G |--4--------------------------|--5-------------------------|--4--------------------5----|--2-----2-------------------|
D |--5--------------------------|--7-------------------------|--5-------------------------|----------------------------|
A |-----------------------------|----------------------------|----------------------------|----------------------------|
D |-----------------------------|----------------------------|----------------------------|----------------------------|
                           
     ^                             ^                            ^                            ^  
     E  E  Q     Q     S S E       E  E  H                      E  E  Q     Q     E  E       E  E  H.
  |--------3--------------------|--5--7--5-------------------|--3h-5--0-------------------|-----0----------------------|
  |--3h-5--3-----------3-Ls5----|--5----(5)------------------|--3-----------3-----3-------|--3-------------------------|
  |--4-----------4--------------|--5----(5)------------------|--4-----4--------------5----|--2-----2-------------------|
  |--5--------------------------|--7-------------------------|--5-------------------------|----------------------------|
  |-----------------------------|----------------------------|----------------------------|----------------------------|
  |-----------------------------|----------------------------|----------------------------|----------------------------|

     ^                      
     E  E  E  Q     E  E  E       E  E  E  E  E  E  Q          E  E  E  Q     E  E  E       E  E  Q     E  E  Q
  |----------------------------|----------------------------|-----------------0-----0----|--------3-----0-------------|
  |--1--------0--------3--0----|-----------0--0-------------|--------------------3-------|--3-----0-------------------|
  |--4-----0--------2----------|--------0-----------5-------|--2--------2----------------|--------------------0-------|
  |-----2----------------------|-----2-----------0----------|--------3-------------------|-----0-----------2----------|
  |--0-------------------------|--0-------------------------|-----3----------------------|--------------3-------------|
  |----------------------------|--------------5-------------|--3-------------------------|--5-------------------------|

                                                         
     E  E  E  E  E  E  E  E       E  E  E  E  E  E  E  E       E  E  E  Q     E  E  E       E  E  Q     E  E  Q
  |--0-------------------------|--------------0-------------|-----------------0-----5----|--3-----1-----0-------------|
  |--------3-----1-----0--1----|--3-----3--0-----------0----|--1-----------------3-------|--------0-----------1-------|
  |-----------2-----------2----|--------------0-----0-------|-----------2----------------|--------------------0-------|
  |-----0--3--------0----------|-----2-----------2----------|--------3-------------------|-----0-----------2----------|
  |----------------------------|----------------------------|-----3----------------------|--------------3-------------|
  |--0-------------------------|--2-----------2-------------|--3-------------------------|--5-------------------------|


     E  E  E  E  E  E  E  E       E  E  E  E  E  E  E  E       E  E  E  E  E  E  E  E       E  E  E  E  E  E  E  E      
  |--0-----------1-----0--1----|--3-----------5-----0-------|--7--8--7-----0-----3-------|--5-----------0-------------|
  |--------3-----------1-------|--0-----3--0-----------0----|----------------------------|--------3-----------1-------|
  |--2--------2-----------2----|--------0-----------0-------|--------5--7-----------2----|--------4--0-----------0----|
  |-----0--3--------0----------|-----2-----------2----------|-----------------3----------|-----0-----------2----------|
  |----------------------------|----------------------------|--0-------------------------|--------------3-------------|
  |--0-------------------------|--2-----------2-------------|--------------3-------------|--5-------------------------|

                 ^                                         
     E  E  E  E  E  E  E  E       E  E  E  E  E  E  E  E       E  E  E  E  E  E  E  E       E  E  E  E  E  E  E  E
  |--0--1--0-------------------|--------0-----3-----0--3----|--7--8--7-----0-----3-------|--5-----------0-------------|
  |--------------0-----1-------|--3-----------------0-------|----------------------------|--------3-----------0-------|
  |-----------2--2--------2----|--2-----2--------------0----|--------5--7-----------2----|--------4--0-----------0----|
  |-----0--3--------2----------|-----------3-----0----------|-----------------3----------|-----0-----------2----------|
  |--------------0-------------|-----3----------------------|--0-------------------------|--------------3-------------|
  |--0-------------------------|--3-----------5-------------|--------------3-------------|--5-------------------------|

                 ^                                        
     E  E  E  E  E  E  E  E       E  E  E  E  E  E  E  E       E  E  E  Q     E  E  E       E  E  E  Q     E  Q	
  |--0--1--0-------------------|--------0-----3-------------|----------------------------|----------------------------|
  |--------------0-----1-------|--3-----------------0-------|-----------0--------3--0----|-----------0----------------|
  |-----------2--2--------2----|--2-----2--------------0----|--2-----0--------2----------|--------0-----------0-------|
  |-----0--3--------2----------|-----------3-----0----------|-----2----------------------|-----2-----------2----------|
  |--------------0-------------|-----3----------------------|--0-------------------------|--0-------------------------|
  |--0-------------------------|--3-----------5-------------|----------------------------|----------------------------|

                                                          
     E  E  E  E  E  E  E  E       E  E  E  E  E  E  Q          E  E  E  E  E  E  E  E       E  E  E  Q     E  Q
  |--0-----------0--------3----|--0-------------------------|--------------5-------------|----------------------------|
  |-------(0)-0--------3--0----|-----------0--3-----0-------|-----------0--------3--0----|-----------0----------------|
  |--------0--------2----------|--------0-----------0-------|--2-----0--------2----(0)---|--------0-----------0-------|
  |-----2----------------------|-----2-----------2----------|-----2----------------------|-----2-----------2----------|
  |--0-------------------------|--0-------------------------|--0-------------------------|--0-------------------------|
  |----------------------------|----------------------------|----------------------------|----------------------------|

                                                             rall------->
     E  E  E  E  E  E  E  E       E  E  E  Q     E  Q          E  E  H.                     W
  |--------0-------------------|----------------------------|----------------------------|---------------------------||
  |-----------0--3-----3--0----|-----------0----------------|----------------------------|---------------------------||
  |--------0--------2----------|--------0-----------0-------|--------2-------------------|--L------------------------||
  |-----2----------------------|-----2-----------2----------|-----2----------------------|--L------------------------||
  |--0-------------------------|--0-------------------------|--0-------------------------|--L------------------------||
  |----------------------------|----------------------------|----------------------------|---------------------------||

        
Login or Register to remove this ad.