Ads

Samidare (Early Summer Rain) (Naruto Shippuuden) Guitar Tab

Submitted: Jul 17, 2012 by scarecrowlol (Last updated: Jul 11, 2018)

4.666665
Average: 4.7 (6 votes)
Download | Listen
Game: Naruto Shippuuden
Composer(s): Yasuharu Takanashi
Style: Arrangement, Fingerstyle
Series: Naruto

This song is also called 五月雨

AutoScroll: Slow | Medium | Fast
Title: Samidare (Early Summer Rain)
SubTitle: Naruto Shippuden
Artist: Takanashi Yasaharu
Tabber: Mitch Jackson
Tempo = 58
T/S = 4/4

LEGEND
---------
^ = Downstroke
L = Hold Previous Note
b = Bend / Release
p = Pull-off
|-4:3-| = 4 Notes Equal 3 (Pretty Much Tremolo)


Left hand fingering is included in the GP file as a guide.



   ♪♫•*¨*•.¸¸ CAPO 5 ¸¸.•*¨*•♫♪ 

                             
                                                               ^
     E  E  E  Q     E  E  E       E  E  E  Q     E  Q          E  E  E  Q     E  E  E       E  E  E  E  E  E  Q
E |----------------------------|----------------------------|----------------------------|----------------------------|
B |-----------0--------3--0----|-----------0----------------|--1--------0--------3--0----|-----------0--0-------------|
G |--------0--------2----------|--------0-----------0-------|--4-----0--------2----------|--------0-----------5-------|
D |-----2----------------------|-----2-----------2----------|--2--2----------------------|-----2-----------0----------|
A |--0-------------------------|--0-------------------------|--0-------------------------|--0-------------------------|
D |----------------------------|----------------------------|----------------------------|--------------5-------------|

                                                                                            ^
     E  E  E  Q     E  E  E       E  E  Q     E  E  Q          E  E  E  E  E  E  E  E       E  E  E  E  E  E  E  E
  |-----------------0-----0----|--------3-----0-------------|--0-------------------------|--------------0-------------|
  |--------------------3-------|--3-------------------------|--------3-----1-----0--1----|--3-----3--0--------0--0----|
  |--2--------2----------------|--------0-----------0-------|-----------2-----------2----|--0-----------0-----0-------|
  |--------3-------------------|-----0-----------2----------|-----0--3--------0----------|-----2-----------2----------|
  |-----3----------------------|--------------3-------------|----------------------------|----------------------------|
  |--3-------------------------|--5-------------------------|--0-------------------------|--2-----------2-------------|

                                                               ^
     E  E  E  Q     E  E  E       E  E  Q     E  E  Q          E  E  E  E  E  E  S S E       E  E  E  E  E  E  E  E
  |-----------------0-----5----|--3-----------0-------------|--0-----------1-----0---1----|--3-----------5-----0-------|
  |--1-----------------3-------|--------6-------------------|--1-----3-----------1p0------|--------3--0-----------0----|
  |-----------2----------------|--------4-----------0-------|--2--------2------------2----|--0-----------------0-------|
  |--------3-------------------|-----0-----------2----------|-----0--3--------0-----------|-----2-----------2----------|
  |-----3----------------------|--------------3-------------|-----------------------------|----------------------------|
  |--3-------------------------|--5-------------------------|--0--------------------------|--2-----------2-------------|
                                                    
      ^                                        ^                            ^              First Ending ---------->
      E  E  E  E  E  E  E  E       E  E  E  E  E  E  E  E       E  E  E  E  E  E  E  E       E  E  E  E  E  E  E  E    
  ||--7--8--7-----0-----3-------|--5-----------0-------------|--0--1--0-------------------|--------0-----3-----0--3----||
  ||--5--------3--------1-------|--------3-----1-----1-------|--------------0-----1-------|--3-----------------0-------||
  ||o-5-----5--2-----------2----|--------4--0--0--------0----|--------2--2--2--------2----|--------2--------------0---o||
  ||o----------------0----------|-----0-----------2----------|-----0-----3-----2----------|-----------3-----0---------o||
  ||--0-------------------------|--------------3-------------|--------------0-------------|-----3----------------------||
  ||--------------3-------------|--5-------------------------|--0-------------------------|--3-----------5-------------||

   Second Ending --------->       |-4:3-|                  
     E  E  E  E  E  E  E  E       T T T T T E  E  Q     E  E  E       E  E  E  E  E  S T T E  E       E  E  E  E  E  E  E  E      
  |--------0-----3-------------|------------------------0-----0----|--------------0----3p0---------|-----3-----5--0-------------|
  |--3-----------------0-------|------------------0--------3--0----|-----------0-----------3--0----|-----------0--------3--0----|
  |--------2--------------0----|----2-2-2-L----0--------2----------|--------0--------2-------------|--------0--------2----------|
  |-----------3-----0----------|------------2----------------------|-----2-------------------------|-----2----------------------|
  |-----3----------------------|--0--------------------------------|--0----------------------------|--0-------------------------|
  |--3-----------5-------------|-----------------------------------|-------------------------------|----------------------------|

                                  ^                            ^                            ^
     E  E  E  E  E  E  Q          E  E  E  Q     E  E  E       E  E  E  Q     E  Q          E  E  E  Q     E  E  E   
  |----------------------------|-----0--3--------------0----|--5--3--0-------------------|--3--5--0-------------------|
  |-----------0--3-----0-------|--3-----------------3-------|--5--------1----------------|--0-----------------3-------|
  |--------0-------------------|--0--------0--------4--0----|--5-----2-----------2-------|--0--------0--------4--5----|
  |-----2-----------2----------|--0-----0--------0----------|-----2-----------2----------|--------0--------0----------|
  |--0-------------------------|----------------------------|--0-------------------------|----------------------------|
  |----------------------------|--5-------------------------|----------------------------|--5-------------------------|
             
                                  ^                            ^                            ^
     E  E  E  E  H                E  E  E  Q     E  E  E       E  E  E  Q     E  Q          E  E  E  Q     E  E  E      
  |-----0----------------------|-----0--3--------------0----|--5--7--5-------------------|--3--5--0-------------------|
  |--1b-------1--L-------------|--3-----------------3-------|--5-------------------------|--0-----------------3-------|
  |--------2-------------------|--0--------0--------4--0----|--5--------5--------2-------|--0--------0--------4--5----|
  |-----2----------------------|--0-----0--------0----------|-----------------2----------|--------0--------0----------|
  |--0-------------------------|----------------------------|--0-------------------------|----------------------------|
  |----------------------------|--5-------------------------|----------------------------|--5-------------------------|

                                   ^                                        ^                            ^
     E  E  E  Q     E  Q           E  E  E  E  E  E  E  E       E  E  E  E  E  E  E  E       E  E  E  E  E  E  E  E    
  |-----0--------------0-------||--7--8--7-----0-----3-------|--5-----------0-------------|--0--1--0-------------------|
  |--1b-------1--------1-------||--5--------3--------1-------|--------3-----1-----1-------|--------------0-----1-------|
  |--------2-----------2-------||o-5-----5--2-----------2----|--------4--0--0--------0----|--------2--2--2--------2----|
  |-----2-----------2----------||o----------------0----------|-----0-----------2----------|-----0-----3-----2----------|
  |--0-------------------------||--0-------------------------|--------------3-------------|--------------0-------------|
  |----------------------------||--------------3-------------|--5-------------------------|--0-------------------------|

   First Ending ---------->      Second Ending --------->       |-4:3-|
     E  E  E  E  E  E  E  E        E  E  E  E  E  E  E  E       T T T T T E  E  Q     E  E  E       E  E  E  Q     E  Q
  |--------0-----3-----0--3----||--------0-----3-------------|-----------------------------------|----------------------------|
  |--3-----------------0-------||--3-----------------0-------|------------------0--------3--0----|-----------0----------------|
  |--------2--------------0---o||--------2--------------0----|----2-2-2-L----0--------2----------|--------0-----------0-------|
  |-----------3-----0---------o||-----------3-----0----------|------------2----------------------|-----2-----------2----------|
  |-----3----------------------||-----3----------------------|--0--------------------------------|--0-------------------------|
  |--3-----------5-------------||--3-----------5-------------|-----------------------------------|----------------------------|

     ^                                                         |-4:3-|
     E  E  E  Q     E  E  E       E  E  E  Q     E  Q          T T T T T E  E  E  E  E  E  E       E  E  E  Q     E  Q                          
  |----------------------------|----------------------------|---------------0-------------------|----------------------------|
  |--1--------0--------3--0----|-----------0----------------|------------------0--3-----3--0----|-----------0----------------|
  |--4-----0--------2----------|--------0-----------0-------|----2-2-2-L----0--------2----------|--------0-----------0-------|
  |--2--2----------------------|-----2-----------2----------|------------2----------------------|-----2-----------2----------|
  |--0-------------------------|--0-------------------------|--0--------------------------------|--0-------------------------|
  |----------------------------|----------------------------|-----------------------------------|----------------------------|

   Rall---->
     E  E  H.
  |----------------------------||
  |----------------------------||
  |--------2-------------------||
  |-----2----------------------||
  |--0-------------------------||
  |----------------------------||
Login or Register to remove this ad.

5 comments on Samidare (Early Summer Rain)

(No subject)

5

ha

ha

:O

i kno :\

Thank you

Thank you very much !

Your welcome! i intend to

Your welcome! i intend to edit this tab someday soon and make it a bit easier to play