Ads

Rakujitsu (Setting Sun) (Naruto Shippuuden) Guitar Tab

Submitted: Jul 21, 2012 by scarecrowlol (Last updated: Feb 19, 2013)

4.6
Average: 4.6 (5 votes)
Download | Listen
Game: Naruto Shippuuden
Composer(s): Yasuharu Takanashi
Style: Arrangement, Fingerstyle
Series: Naruto

AutoScroll: Slow | Medium | Fast
Title: Rakujitsu (setting sun)
SubTitle: Naruto Shipuuden OST
Artist: Takanashi Yasaharu
Tabber: Mitch Jackson
Tempo = 50
T/S = 4/4

                                              ^
     E  E  Q     H                E  E  Q     H                E  E  Q     Q     Q          E  E  E  E  Q     Q                                                       
E |----------------------------|--------------5-------------|----------------------------|-----------3~-------0-------|
B |----------------------------|--------------3-------------|--3-----------------3~------|--1-----------3-------------|
G |-----2--0-------------------|-----2--0-----2-------------|-----2--0-------------------|-----2--0-------------------|
D |--0-----------0-------------|--0-----------0-------------|--0-----------0-------------|--0-----------0-------------|
A |----------------------------|----------------------------|----------------------------|----------------------------|
D |----------------------------|--------------0-------------|--------------0-------------|----------------------------|

                                                          

     E  E  Q     H                E  E  Q     Q     E  E       E  E  E  E  Q     Q          E  E  E  E  Q     Q
  |--1--0----------------------|--------------5b----L--L----|----------------------------|-----------3--------0-------|
  |--------3~------------------|--3-------------------------|--------------------3-------|--1-----------3~------------|
  |-----2--0-------------------|-----2--0-----7-------------|-----2--0-------------------|-----2--0-------------------|
  |--0-----------0-------------|--0-----------0-------------|--0--------7~-0-------------|--0-----------0-------------|
  |----------------------------|----------------------------|----------------------------|----------------------------|
  |--------------0-------------|----------------------------|--------------0-------------|--------------0-------------|

                                                          
                                                               = = =                             = = =
     E  E  Q     Q     Q          E  E  Q     H                X X X  E  E  E  Q      Q          X X X  E  Q     H                                      
  |--5~-3--1-------------------|--1-------------------------|---------------------------------|--------------------------------|
  |--3-----------3-------------|----------------------------|--5-5-5--------4---------4~------|--------------------------------|
  |-----2--0-------------------|-----2--0-------------------|------------------4--------------|--6-6-6-------------------------|
  |--0-----------0-------------|--0-----------0-------------|---------6--4--------------------|---------6--4-----6-------------|
  |--------------------0-------|--------------0-------------|--4L--------------2--------------|--4L--------------4-------------|
  |----------------------------|--------------0-------------|---------------------------------|--------------------------------|

                                                                                
     = = =                            = = =           ^
     X X X  E  E  E  Q     Q          X X X  E  Q     E  E  Q          E  E  Q     E  E  E  E       E  E  E  E  Q     Q
  |--4-4-4-------------------------|------------------4-----4-------|--5~----------------10------|--8~-------3--------12~-----|
  |---------------7--5-------------|------------------5-------------|----------------------------|----------------------------|
  |---------------6--------4-------|--6-6-6-----------6-------------|-----2--0-------------------|-----2--0-------------------|
  |---------6--4-----------4-------|---------6--4--------6----------|--0-----------0-----10-8----|--0-----------0-----10------|
  |--4L--------------4-------------|--4L--------------4-------------|--------------0-------------|--------------0-------------|
  |--------------------------------|--------------------------------|--0--------------0----------|--0-----------0-------------|


                                           ^ 
     E  E  E  E  Q     E  E       E  E  E  E  Q     Q          E  E  Q     Q     E  E       E  E  E  E  Q     Q                                                     
  |--13-12-10----10~-----------|--------------5-------------|--5-----------------10------|--8--------3~-------12~-----|
  |----------------------------|--------------------1~------|--------------3~------------|----------------------------|
  |-----------12-------5--3----|-----2--0-----2-------------|-----2--0-------------------|-----2--0-----2-----9-------|
  |--0-----------0-------------|--0-----------0-------------|--0-----------0-----10-8----|--0-----------0-------------|
  |-----12-10------------------|-----------0----------------|--------------0-------------|--------------0-------------|
  |--0-------------------------|--0-------------------------|--------------0-------------|--------------0-------------|

                                          
                                                               ^
     E  E  Q     Q     E  E       E  E  Q     Q     Q          W
  |--10----3~------------------|----------------------------|--5-------------------------||
  |----------------------------|--------------------1~------|--3-------------------------||
  |-----2--0-----------5--3----|-----2--0-------------------|--2-------------------------||
  |--0-----------0-------------|--0-----------0-------------|--0-------------------------||
  |----------------------------|----------------------------|--0-------------------------||
  |--------------0-------------|--0-----------0-------------|--0-------------------------||

                               
Login or Register to remove this ad.