Ads

Spiral (Naruto Shippuden: Ultimate Ninja Storm 4) Bass/Guitar Tab

Submitted: Dec 07, 2017 by hslesperance

5
Average: 5 (2 votes)
Download | Listen
Game: Naruto Shippuden: Ultimate Ninja Storm 4
Composer(s): Chikayo Fukuda
Style: 2 or more instruments, Artificial harmonics, Transcription
Series: Naruto

This song is also called Opening Theme

AutoScroll: Slow | Medium | Fast
Spiral
Naruto Shippuden: Ultimate Ninja Storm 4
Composed by KANA-BOON
Tabbed by hslesperance
12/7/17

Standard Tuning


Guitar 1

  W              W                  W                W                  W
|-------------|-------------------|---------------|-------------------|---------------|
|-------------|-------------------|---------------|-------------------|---------------|
|-------------|-------------------|---------------|-------------------|---------------|
|-------------|-------------------|---------------|-------------------|---------------|
|-------------|-------------------|---------------|-------------------|---------------|
|-------------|-------------------|---------------|-------------------|---------------|


   Q    Q   Q   Q    Q   Q   E Q  E    Q    Q   Q   Q    Q   E Q  Q  E
|------------------|----------------|------------------|----------------|
|------------------|----------------|------------------|-------4--3-----|
|-------5---3---5--|----------------|-------5---3---5--|-3---5-------5--|
|------------------|-5---3-----3--5-|------------------|----------------|
|------------------|---------6------|------------------|----------------|
|------------------|----------------|------------------|----------------|


   Q    Q   Q   Q    Q   E Q  Q  E    Q    Q   Q   Q     E   Q       Q       Q   E
|------------------|---------------|------------------|-----------------------------|
|------------------|---------------|------------------|--4---3----------------------|
|-------5---3---5--|---------------|-------5---3---5--|--------------5-------3---5--|
|------------------|-5---3----3--5-|------------------|-----------------------------|
|------------------|-------6-------|------------------|-----------------------------|
|------------------|---------------|------------------|-----------------------------|


   Q   Q  Q  E E    Q   Q.      Q  E   +Q   Q  Q  E E    Q   Q   E  Q  E
|----------------|--3---3------------|----------------|--3---3------------|
|---------4--6-4-|-------------------|---------4--6-4-|----------4--------|
|------5---------|-----------------5-|-(5)--5---------|-------------5--5--|
|----------------|-------------------|----------------|-------------------|
|----------------|-------------------|----------------|-------------------|
|----------------|-------------------|----------------|-------------------|


  +Q   Q  Q  E E    Q   Q.      Q  E   +Q    Q   Q  E E   Q  Q  Q  Q
|----------------|--3---3------------|------------------|-3--3--3--3---|
|---------4--6-4-|-------------------|-----------4--6-4-|--------------|
|-(5)--5---------|-----------------5-|-(5)---5----------|--------------|
|----------------|-------------------|------------------|--------------|
|----------------|-------------------|------------------|--------------|
|----------------|-------------------|------------------|--------------|


  Q   Q.     Q   E   +E  E H       Q     Q   Q.     Q   E   +E  E H       Q
|------------3-----|-------------------|------------3-----|-----3-3------------|
|-4--------------6-|-(6)-4-------------|-4--------------6-|-(6)----------------|
|-----5------------|-------5-----------|-----5------------|--------------------|
|------------------|-------------------|------------------|--------------------|
|------------------|-------------------|------------------|--------------------|
|------------------|-------------------|------------------|--------------------|


  Q   Q.     Q   E   +E  E H       E E   Q.   E H       Q.    E H
|------------3-----|-------------------|-------------|--3-----4-------------|
|-4--------------6-|-(6)-4-------------|-4----6------|----------6-----------|
|-----5------------|-------5---------5-|--------5----|----------------------|
|------------------|-------------------|-------------|----------------------|
|------------------|-------------------|-------------|----------------------|
|------------------|-------------------|-------------|----------------------|


  Q   Q.     Q   E   +E  E H       E E   Q   Q.     Q   E   +E  E H       Q
|------------3-----|-------------------|------------3-----|-----3-3------------|
|-4--------------6-|-(6)-4-------------|-4--------------6-|-(6)----------------|
|-----5------------|-------5---------5-|-----5------------|--------------------|
|------------------|-------------------|------------------|--------------------|
|------------------|-------------------|------------------|--------------------|
|------------------|-------------------|------------------|--------------------|


  Q   Q.     Q   E   +E  E H       Q     Q.     E H          H       +E   E     Q
|------------3-----|-------------------|------------------|--3-------(3)------------|
|-4--------------6-|-(6)-4-------------|-4----------------|---------------6-----6---|
|-----5------------|-------5-----------|--------5-5-------|-------------------------|
|------------------|-------------------|------------------|-------------------------|
|------------------|-------------------|------------------|-------------------------|
|------------------|-------------------|------------------|-------------------------|


  W                   W                  W                   W
|------------------|-------------------|------------------|--------------------|
|------------------|-------------------|------------------|--------------------|
|------------------|-------------------|------------------|--------------------|
|------------------|-------------------|------------------|--------------------|
|------------------|-------------------|------------------|--------------------|
|------------------|-------------------|------------------|--------------------|


  W                   W                  W                 W
|------------------|-------------------|---------------|---------------------|
|------------------|-------------------|---------------|---------------------|
|------------------|-------------------|---------------|---------------------|
|------------------|-------------------|---------------|---------------------|
|------------------|-------------------|---------------|---------------------|
|------------------|-------------------|---------------|---------------------|


  Q   Q.     Q   E   +E  E H       Q     Q   Q.     Q   E   +E  E H       Q
|------------3-----|-------------------|------------3-----|-----3-3------------|
|-4--------------6-|-(6)-4-------------|-4--------------6-|-(6)----------------|
|-----5------------|-------5-----------|-----5------------|--------------------|
|------------------|-------------------|------------------|--------------------|
|------------------|-------------------|------------------|--------------------|
|------------------|-------------------|------------------|--------------------|


  Q   Q.     Q   E   +E  E H       E E   Q.   E H       Q.    E H
|------------3-----|-------------------|-------------|--3-----4-------------|
|-4--------------6-|-(6)-4-------------|-4----6------|----------6-----------|
|-----5------------|-------5---------5-|--------5----|----------------------|
|------------------|-------------------|-------------|----------------------|
|------------------|-------------------|-------------|----------------------|
|------------------|-------------------|-------------|----------------------|


  Q   Q.     Q   E   +E  E H       E E   Q   Q.     Q   E   +E  E H       Q
|------------3-----|-------------------|------------3-----|-----3-3------------|
|-4--------------6-|-(6)-4-------------|-4--------------6-|-(6)----------------|
|-----5------------|-------5---------5-|-----5------------|--------------------|
|------------------|-------------------|------------------|--------------------|
|------------------|-------------------|------------------|--------------------|
|------------------|-------------------|------------------|--------------------|


  Q   Q.     Q   E   +E  E H       Q     Q.   E H       Q.    E Q.          E
|------------3-----|-------------------|-------------|--3-------------------3-|
|-4--------------6-|-(6)-4-------------|-4-----------|--------6-6-------------|
|-----5------------|-------5-----------|------5-5----|------------------------|
|------------------|-------------------|-------------|------------------------|
|------------------|-------------------|-------------|------------------------|
|------------------|-------------------|-------------|------------------------|


  e E E E E E Q     E q   q  q  e   +e  E E E E E Q     E q   q  q  E   +E  E E E E E Q
|---3-------------|---------------|-----3-------------|---------------|-----3--------------*|
|-6---3-4---3-----|-------------6-|-(6)---3-4---3-----|-------------6-|-(6)---3-4---3------*|
|---------5---3---|----------3----|-----------5---3---|----------3----|-----------5---3----*|
|-----------------|-------5-------|-------------------|-------5-------|--------------------*|
|-----------------|---6-----------|-------------------|---6-----------|--------------------*|
|-----------------|---------------|-------------------|---------------|--------------------*|




Guitar 2

  H.      E E   +E  E E E E E Q     E q   q  q  E   +E  E E E E E Q     E q   q  q  e
|-------------|-------------------|---------------|-------------------|---------------|
|-----------3-|-(3)-4-------------|-------------3-|-(3)-4-------------|-------------3-|
|-------------|-------3-5---------|---------------|-------3-5---------|---------------|
|-------------|-----------3-5-----|----------3----|-----------3-5-----|----------3----|
|-------------|---------------6---|---3---6-------|---------------6---|---3---6-------|
|-------------|-------------------|---------------|-------------------|---------------|

   PM----------------------------------------------------------------|
  +e  E E E E E Q    E q   q   q  e   +e  E E E E E Q    E q   q  q  E
|------------------|----------------|------------------|----------------|
|-(3)-4------------|--------------3-|-(3)-4------------|-------------3--|
|-------3-5--------|----------------|-------3-5--------|----------------|
|-----------3-5----|-----------3----|-----------3-5----|----------3-----|
|---------------6--|---3---6--------|---------------6--|---3---6--------|
|------------------|----------------|------------------|----------------|

   PM------------------------------------------------------------------------|
  +e  E E E E E Q    E q   q  q  e   +e  E E E E E Q     E   q       q       q   E
|------------------|---------------|------------------|-----------------------------|
|-(3)-4------------|-------------3-|-(3)-4------------|-----------------------------|
|-------3-5--------|---------------|-------3-5--------|-----------------------------|
|-----------3-5----|----------3----|-----------3-5----|----------------------3------|
|---------------6--|---3---6-------|---------------6--|------3-------6--------------|
|------------------|---------------|------------------|-----------------------------|


   W                W                   W                W
|----------------|-------------------|----------------|-------------------|
|----------------|-------------------|----------------|-------------------|
|----------------|-------------------|----------------|-------------------|
|----------------|-------------------|----------------|-------------------|
|----------------|-------------------|----------------|-------------------|
|----------------|-------------------|----------------|-------------------|


   W                W                   W                 W
|----------------|-------------------|------------------|--------------|
|----------------|-------------------|------------------|--------------|
|----------------|-------------------|------------------|--------------|
|----------------|-------------------|------------------|--------------|
|----------------|-------------------|------------------|--------------|
|----------------|-------------------|------------------|--------------|


  E E E  E E E E E    E  E E E E E E E   E E E  E E E E E    E  E E E E E E E
|------------------|-------------------|------------------|--------------------|
|-----4--4-3-3-----|--4--4-3-3-----4-4-|----------4-4-3-3-|-------4-4-3-3-4-4--|
|-5-5----------3-3-|-----------3-3-----|-3-3-3--3---------|--3--3--------------|
|------------------|-------------------|------------------|--------------------|
|------------------|-------------------|------------------|--------------------|
|------------------|-------------------|------------------|--------------------|


  E E E  E E E E E    E  E E E E E E E   H      H       Q.    Q    S  S  Q
|------------------|-------------------|-------------|-11----11---------13--|
|-6-6-4--4-3-3-4-4-|-------------------|-6-----------|------------11--------|
|------------------|--3--3-3-3-3-3-3-3-|-------------|---------------12-----|
|------------------|-------------------|-------------|----------------------|
|------------------|-------------------|-------------|----------------------|
|------------------|-------------------|-------------|----------------------|


  E E E  E E E E E    E  E E E E E E E   E E E  E E E E E    E  E E E E E E E
|------------------|-------------------|------------------|--------------------|
|-----4--4-3-3-----|--4--4-3-3-----4-4-|----------4-4-3-3-|-------4-4-3-3-4-4--|
|-5-5----------3-3-|-----------3-3-----|-3-3-3--3---------|--3--3--------------|
|------------------|-------------------|------------------|--------------------|
|------------------|-------------------|------------------|--------------------|
|------------------|-------------------|------------------|--------------------|


  E E E  E E E E E    E  E E E E E E E   E  E E E E E E E    Q.    Q      S  S  Q
|------------------|-------------------|------------------|-11----11-----------13---|
|-6-6-4--4-3-3-4-4-|-------------------|-6--6-4-4-4-4-3-4-|--------------11---------|
|------------------|--3--3-3-3-3-3-3-3-|------------------|-----------------12------|
|------------------|-------------------|------------------|-------------------------|
|------------------|-------------------|------------------|-------------------------|
|------------------|-------------------|------------------|-------------------------|


  Q   Q.     Q.       Q.     Q.    E E   Q   Q.     Q.       Q.     Q.    E E
|------------------|-------------------|------------------|--------------------|
|------------------|-------------------|------------------|--------------------|
|-----3------5-----|--3------5---------|-----3------5-----|--3------5----------|
|------------------|---------------3-5-|------------------|---------------3-5--|
|------------------|-------------------|------------------|--------------------|
|------------------|-------------------|------------------|--------------------|

                                                                ~~~
  Q   Q.     Q.       Q.     Q.    E E   Q.   Q.    Q     +E    H.        E
|------------------|-------------------|-8\---9\---10--|-(10)\-11------------|
|------------------|-------------------|---------------|---------------------|
|-----3------5-----|--3------5---------|---------------|---------------------|
|------------------|---------------3-5-|---------------|---------------------|
|------------------|-------------------|---------------|---------------------|
|------------------|-------------------|---------------|---------------------|


  E E E  E E E E E    E  E E E E E E E   E E E  E E E E E    E  E E E E E E E
|------------------|-------------------|------------------|--------------------|
|-----4--4-3-3-----|--4--4-3-3-----4-4-|----------4-4-3-3-|-------4-4-3-3-4-4--|
|-5-5----------3-3-|-----------3-3-----|-3-3-3--3---------|--3--3--------------|
|------------------|-------------------|------------------|--------------------|
|------------------|-------------------|------------------|--------------------|
|------------------|-------------------|------------------|--------------------|


  E E E  E E E E E    E  E E E E E E E   H      H       Q.    Q    S  S  Q
|------------------|-------------------|-------------|-11----11---------13--|
|-6-6-4--4-3-3-4-4-|-------------------|-6-----------|------------11--------|
|------------------|--3--3-3-3-3-3-3-3-|-------------|---------------12-----|
|------------------|-------------------|-------------|----------------------|
|------------------|-------------------|-------------|----------------------|
|------------------|-------------------|-------------|----------------------|


  E E E  E E E E E    E  E E E E E E E   E E E  E E E E E    E  E E E E E E E
|------------------|-------------------|------------------|--------------------|
|-----4--4-3-3-----|--4--4-3-3-----4-4-|----------4-4-3-3-|-------4-4-3-3-4-4--|
|-5-5----------3-3-|-----------3-3-----|-3-3-3--3---------|--3--3--------------|
|------------------|-------------------|------------------|--------------------|
|------------------|-------------------|------------------|--------------------|
|------------------|-------------------|------------------|--------------------|


  E E E  E E E E E    E  E E E E E E E   H      H       Q.    Q     S  S  Q
|------------------|-------------------|-------------|-11----11----------13---|
|-6-6-4--4-3-3-4-4-|-------------------|-6-----------|-------------11---------|
|------------------|--3--3-3-3-3-3-3-3-|-------------|----------------12------|
|------------------|-------------------|-------------|------------------------|
|------------------|-------------------|-------------|------------------------|
|------------------|-------------------|-------------|------------------------|


  e E E E E E Q     E q   q  q  e   +e  E E E E E Q     E q   q  q  E   +E  E E E E E Q
|-----------------|---------------|-------------------|---------------|--------------------*|
|-3-4-------------|-------------3-|-(3)-4-------------|-------------3-|-(3)-4--------------*|
|-----3-5---------|---------------|-------3-5---------|---------------|-------3-5----------*|
|---------3-5-----|----------3----|-----------3-5-----|----------3----|-----------3-5------*|
|-------------6---|---3---6-------|---------------6---|---3---6-------|---------------6----*|
|-----------------|---------------|-------------------|---------------|--------------------*|




Guitar 3

  H.      E E   +E  E E E E E E E   E E E q  Q  E   +E  E E E E E E E   E E E q  Q  E
|-------------|-------------------|---------------|-------------------|---------------|
|-------------|-------------------|---------------|-------------------|-------------6-|
|-----------5-|-(5)-5-5-5-5-5-5-5-|-5-5-5-5--3--5-|-(5)-5-5-5-5-5-5-5-|-5-5-5-5--3----|
|-----------5-|-(5)-5-5-5-5-5-5-5-|-5-5-5-5--3--5-|-(5)-5-5-5-5-5-5-5-|-5-5-5-5--3----|
|-----------3-|-(3)-3-3-3-3-3-3-3-|-3-3-3-3--1--3-|-(3)-3-3-3-3-3-3-3-|-3-3-3-3--1----|
|-------------|-------------------|---------------|-------------------|---------------|

   PM----------------------------------------------------------------|
  +e  E E E E E Q    E q   q   q  e   +e  E E E E E Q    E q   q  q  E
|-----3------------|----------------|-----3------------|----------------|
|-(6)---3-4---3----|--------------6-|-(6)---3-4---3----|-------------6--|
|-----------5---3--|-----------3----|-----------5---3--|----------3-----|
|------------------|-------5--------|------------------|-------5--------|
|------------------|---6------------|------------------|---6------------|
|------------------|----------------|------------------|----------------|

   PM----------------------------------------------|
  +e  E E E E E Q    E q   q  q  e   +e  E E E E E Q     E   E   E   E   Q     E E
|-----3------------|---------------|-----3------------|-----------------------------|
|-(6)---3-4---3----|-------------6-|-(6)---3-4---3----|-[8]-[8]-[8]-[8]-[8]\--------|
|-----------5---3--|----------3----|-----------5---3--|-----------------------------|
|------------------|-------5-------|------------------|--------------------------5--|
|------------------|---6-----------|------------------|--------------------------3--|
|------------------|---------------|------------------|--------------------------3--|


  +W               +H       +E  Q  E   +W               +H      +E  Q  E
|----------------|-------------------|----------------|-------------------|
|----------------|-------------------|----------------|-------------------|
|----------------|-------------------|----------------|-------------------|
|-(5)------------|-(5)------(5)-3--5-|-(5)------------|-(5)-----(5)-3--5--|
|-(3)------------|-(3)------(3)-1--3-|-(3)------------|-(3)-----(3)-1--3--|
|-(3)------------|-(3)------(3)-1--3-|-(3)------------|-(3)-----(3)-1--3--|


  +W               +H       +E  Q  E   +E  E E E Q  Q     Q  Q  Q  Q
|----------------|-------------------|------------------|--------------|
|----------------|-------------------|------------------|--------------|
|----------------|-------------------|------------------|-------3--3---|
|-(5)------------|-(5)------(5)-3--5-|-(5)-5-5-5-5--5---|-3--3--1--1---|
|-(3)------------|-(3)------(3)-1--3-|-(3)-3-3-3-3--3---|-1--1--1--1---|
|-(3)------------|-(3)------(3)-1--3-|-(3)-3-3-3-3--3---|-1--1---------|


  W                  +W                  W                  +W
|------------------|-------------------|------------------|--------------------|
|------------------|-------------------|------------------|--------------------|
|------------------|-------------------|------------------|--------------------|
|-5----------------|-(5)---------------|-3----------------|-(3)----------------|
|-3----------------|-(3)---------------|-1----------------|-(1)----------------|
|-3----------------|-(3)---------------|-1----------------|-(1)----------------|


  W                  +W                  W              W
|------------------|-------------------|-------------|----------------------|
|------------------|-------------------|-------------|----------------------|
|------------------|-------------------|-------------|----------------------|
|-8----------------|-(8)---------------|-3-----------|--5-------------------|
|-6----------------|-(6)---------------|-3-----------|--5-------------------|
|-6----------------|-(6)---------------|-1-----------|--3-------------------|


  W                  +W                  W                  +W
|------------------|-------------------|------------------|--------------------|
|------------------|-------------------|------------------|--------------------|
|------------------|-------------------|------------------|--------------------|
|-5----------------|-(5)---------------|-3----------------|-(3)----------------|
|-3----------------|-(3)---------------|-1----------------|-(1)----------------|
|-3----------------|-(3)---------------|-1----------------|-(1)----------------|


  W                  +W                  W                   H.                 E E
|------------------|-------------------|------------------|-------------------------|
|------------------|-------------------|------------------|-------------------------|
|------------------|-------------------|------------------|-----------------------5-|
|-8----------------|-(8)---------------|-3----------------|--5--------------------5-|
|-6----------------|-(6)---------------|-3----------------|--5--------------------3-|
|-6----------------|-(6)---------------|-1----------------|--3----------------------|


  Q.     Q.     Q    +E  Q.     Q  Q     Q.     Q.     Q    +E  Q.     Q  Q
|------------------|-------------------|------------------|--------------------|
|------------------|-------------------|------------------|--------------------|
|-5------5------5--|-(5)-5------5--6---|-5------5------5--|-(5)-5------5--6----|
|-5------5------5--|-(5)-5------5--6---|-5------5------5--|-(5)-5------5--6----|
|-3------3------3--|-(3)-3------3--4---|-3------3------3--|-(3)-3------3--4----|
|------------------|-------------------|------------------|--------------------|


  Q.     Q.     Q    +E  Q.     Q  Q     Q.   Q.    Q     +E    Q.   Q  Q
|------------------|-------------------|---------------|---------------------|
|------------------|-------------------|---------------|---------------------|
|-5------5------5--|-(5)-5------5--6---|-5----5-----5--|--(5)---5----5--6----|
|-5------5------5--|-(5)-5------5--6---|-5----5-----5--|--(5)---5----5--6----|
|-3------3------3--|-(3)-3------3--4---|-3----3-----3--|--(3)---3----3--4----|
|------------------|-------------------|---------------|---------------------|


  W                  +W                  W                  +W
|------------------|-------------------|------------------|--------------------|
|------------------|-------------------|------------------|--------------------|
|------------------|-------------------|------------------|--------------------|
|-5----------------|-(5)---------------|-3----------------|-(3)----------------|
|-3----------------|-(3)---------------|-1----------------|-(1)----------------|
|-3----------------|-(3)---------------|-1----------------|-(1)----------------|


  W                  +W                  W              W
|------------------|-------------------|-------------|----------------------|
|------------------|-------------------|-------------|----------------------|
|------------------|-------------------|-------------|----------------------|
|-8----------------|-(8)---------------|-3-----------|--5-------------------|
|-6----------------|-(6)---------------|-3-----------|--5-------------------|
|-6----------------|-(6)---------------|-1-----------|--3-------------------|


  W                  +W                  W                  +W
|------------------|-------------------|------------------|--------------------|
|------------------|-------------------|------------------|--------------------|
|------------------|-------------------|------------------|--------------------|
|-5----------------|-(5)---------------|-3----------------|-(3)----------------|
|-3----------------|-(3)---------------|-1----------------|-(1)----------------|
|-3----------------|-(3)---------------|-1----------------|-(1)----------------|


  W                  +W                  W              W
|------------------|-------------------|-------------|------------------------|
|------------------|-------------------|-------------|------------------------|
|------------------|-------------------|-------------|------------------------|
|-8----------------|-(8)---------------|-3-----------|--5---------------------|
|-6----------------|-(6)---------------|-3-----------|--5---------------------|
|-6----------------|-(6)---------------|-1-----------|--3---------------------|


  E E E E E E E E   E E E q  Q  E   +E  E E E E E E E   E E E q  Q  E    W
|-----------------|---------------|-------------------|---------------|--------------------*|
|-----------------|---------------|-------------------|---------------|--------------------*|
|-5-5-5-5-5-5-5-5-|-5-5-5-5--3--5-|-(5)-5-5-5-5-5-5-5-|-5-5-5-5--3----|--------------------*|
|-5-5-5-5-5-5-5-5-|-5-5-5-5--3--5-|-(5)-5-5-5-5-5-5-5-|-5-5-5-5--3----|--------------------*|
|-3-3-3-3-3-3-3-3-|-3-3-3-3--1--3-|-(3)-3-3-3-3-3-3-3-|-3-3-3-3--1----|--------------------*|
|-----------------|---------------|-------------------|---------------|--------------------*|




Bass

  H.      E E   +E  E E E E E Q    E E E q  Q  E   +E  E E E E E Q    E E E q  Q  E
|-------------|------------------|---------------|------------------|---------------|
|-------------|------------------|---------------|------------------|---------------|
|-----------3-|-(3)-3-3-3-3-3-3--|-------------3-|-(3)-3-3-3-3-3-3--|-------------3-|
|-------------|------------------|-4-4-4-4--4----|------------------|-4-4-4-4--4----|


    +E  E E E E E Q    E E E q  Q  E   +E  E E E E E Q    E E E q  Q  E
||-------------------|---------------|------------------|----------------||
||o------------------|---------------|------------------|---------------o||
||o-(3)-3-3-3-3-3-3--|-------------3-|-(3)-3-3-3-3-3-3--|-------------3-o||
||-------------------|-4-4-4-4--4----|------------------|-4-4-4-4--4-----||


  +E  E E E E E E E   E E E q  q  E   +E  E E E E E E E   E E E q  q  E
|-------------------|---------------|-------------------|----------------|
|-------------------|---------------|-------------------|----------------|
|-(3)-3-3-3-3-3-3-3-|-3-3-3-1--1--3-|-(3)-3-3-3-3-3-3-3-|-3-3-3-1--1--3--|
|-------------------|---------------|-------------------|----------------|


  +E  E E E E E E E   E E E q  q  E   +E  E E E E E E E   Q  Q  Q  Q
|-------------------|---------------|-------------------|--------------|
|-------------------|---------------|-------------------|-------1--1---|
|-(3)-3-3-3-3-3-3-3-|-3-3-3-1--1--3-|-(3)-3-3-3-3-3-3-3-|-1--1---------|
|-------------------|---------------|-------------------|--------------|


    E E E E E E E E   E E E E E E E E   E E E E E E E E   E E E E E E E E
||------------------|-----------------|-----------------|-----------------|
||o-----------------|-----------------|-----------------|-----------------|
||o-3-3-3-3-3-3-3---|-3-3-3-3-3-3-3-3-|-1-1-1-1-1-1-1---|-1-1-1-1-1-1-1-1-|
||----------------3-|-----------------|---------------1-|-----------------|


  E E E E E E E E   E E E E E E E E   E E E E E E E E   Q  Q  Q  Q
|-----------------|-----------------|-----------------|---------------||
|-1-1-1-1-1---1-1-|-1-3-3-1-1-1-1-1-|-0-0-0-0-0-0-0-0-|-1-----1--3---o||
|-----------1-----|-----------------|-----------------|----3---------o||
|-----------------|-----------------|-----------------|---------------||


  E E E E E E E E   E E E E E E E E   E E E E E E E E   E E E E E E E E
|-----------------|-----------------|-----------------|------------------|
|-----------------|-----------------|-----------------|------------------|
|-3-3-3-3-3-3-3-3-|-3-3-3-3-3-3-3-3-|-3-3-3-3-3-3-3-3-|-3-3-3-3-----1-3--|
|-----------------|-----------------|-----------------|---------1-3------|


  E E E E E E E E   E E E E E E E E   E E E E E E E E   Q  Q  Q  Q
|-----------------|-----------------|-----------------|--------------|
|-----------------|-----------------|-----------------|-------1--1---|
|-3-3-3-3-3-3-3-3-|-3-3-3-3-3-3-3-3-|-3-3-3-3-3-3-3-3-|-1--1---------|
|-----------------|-----------------|-----------------|--------------|


    E E E E E E E E   E E E E E E E E   E E E E E E E E   E E E E E E E E
||------------------|-----------------|-----------------|-----------------|
||o-----------------|-----------------|-----------------|-----------------|
||o-3-3-3-3-3-3-3---|-3-3-3-3-3-3-3-3-|-1-1-1-1-1-1-1---|-1-1-1-1-1-1-1-1-|
||----------------3-|-----------------|---------------1-|-----------------|


  E E E E E E E E   E E E E E E E E   E E E E E E E E   Q  Q  Q  Q
|-----------------|-----------------|-----------------|---------------||
|-1-1-1-1-1---1-1-|-1-3-3-1-1-1-1-1-|-0-0-0-0-0-0-0-0-|-1-----1--3---o||
|-----------1-----|-----------------|-----------------|----3---------o||
|-----------------|-----------------|-----------------|---------------||


  E E E E E E Q    E E E q  Q  E   +E  E E E E E Q    E E E q  Q  E   W
|----------------|---------------|------------------|---------------|------*|
|----------------|---------------|------------------|---------------|------*|
|-3-3-3-3-3-3-3--|-------------3-|-(3)-3-3-3-3-3-3--|---------------|------*|
|----------------|-4-4-4-4--4----|------------------|-4-4-4-4--4----|------*|

PM - palm mute
[n] - artificial harmonic
~ - vibrato

W - whole
H - half
Q - quarter
E - 8th
+ - note tied to previous
. - note dotted

Uncapitalized letters represent notes that are staccato (1/2 duration)
Login or Register to remove this ad.