Ads

Eightmoon (Narcissu) Guitar Tab

Submitted: Jun 22, 2009 by auriplane (Last updated: Jun 23, 2012)

5
Average: 5 (2 votes)
Download | Listen
Game: Narcissu
Composer(s): ebi, Shitoshi Fujimoto
Style: Transcription

AutoScroll: Slow | Medium | Fast
                                        Narcissu - Eightmoon
                                Song by ebi, and Shitoshi Fujimoto

                              Tabbed by auriplane ([email protected])


There is a second guitar part in this, but this is just the main one.  Standard tuning.


                                                                                        e ------------|
                                                                                        B ------------|
                                                                                        G ------4-----|
                                                                                        D 5h7---------|
                                                                                        A ------------|
                                                                                        E ------------|
    Part A (0:00 - 0:27)

e |------------------------|------------------------|------------------------|------------------------|
B |------------------3/5---|------------------------|------------------------|------------------5-----|
G |6-----------------------|4-----------------4h-6p-|4-----------------------|------------6-----------|
D |------------------------|------------------------|------------------7-----|7-----------------------|
A |------------------------|------------------------|------------------------|------------------------|
E |------------------------|------------------------|------------------------|------------------------|

e |4h5---4-----4-----------|------------------------|------------------------|------------------------|
B |------------------5-----|------------------------|------------------5-----|------------------5-----|
G |------------------------|6-----\4-------------4--|4-----/6----------------|------------6-----------|
D |------------------------|------------------7-----|------------------------|------------------------|
A |------------------------|------------------------|------------------------|------------------------|
E |------------------------|------------------------|------------------------|------------------------|

e |------------------------|------------------------|------------------------|------------------------|
B |5/7---5-----7-----------|------------------7-----|5-----7-----7/9---------|------------------------|
G |------------------------|------------------------|------------------6-----|------\3----4-----6-----|
D |------------------7-----|------------7-----------|------------------------|------------------------|
A |------------------------|------------------------|------------------------|------------------------|
E |------------------------|------------------------|------------------------|------------------------|

e |------------------------|------------------------|------------------------|------------------------|
B |2h3---------------------|------------------------|------------------------|------------------------|
G |------------------2-----|------------2-----2h4---|------------------------|------------2-----4-----|
D |------------------------|------4-----------------|------------------------|------------------------|
A |------------------------|------------------------|------------------------|------------------------|
E |------------------------|------------------------|------------------------|------------------------|

    Part B (0:27-0:54)

e |------------------------|------------------------|------------------------|------------------------|
B |------------------5-----|------------------------|------------------------|------------------5-----|
G |4/6---------------------|4-----------------4h-6p-|4-----------------------|------------6-----------|
D |------------------------|------------------------|------------------7-----|7-----------------------|
A |------------------------|------------------------|------------------------|------------------------|
E |------------------------|------------------------|------------------------|------------------------|

e |4h5---4-----4-----------|------------------------|------------------------|------------------------|
B |------------------5-----|------------------------|------------------5-----|------------------5-----|
G |------------------------|4/6---4--------------4--|4-----/6----------------|------------6-----------|
D |------------------------|------------------7-----|------------------------|------------------------|
A |------------------------|------------------------|------------------------|------------------------|
E |------------------------|------------------------|------------------------|------------------------|

e |------------------4h5---|------------4h5---4-----|------------4-----------|------------------------|
B |5/7---5-----7-----------|------------------------|5-----7-----------------|------3h5---3-----2-----|
G |------------------------|------------------------|------------------6-----|------------------------|
D |------------------------|------------------------|------------------------|------------------------|
A |------------------------|------------------------|------------------------|------------------------|
E |------------------------|------------------------|------------------------|------------------------|

e |------------------------|------------------------|------------------------|------------------------|
B |2h3---------------5-----|------------------------|------------------------|------------------------|
G |------------------------|------------6-p4-p2-----|------------------------|------------------------|
D |---------------------4--|------7-----------------|------------------------|------------------------|
A |------------------------|------------------------|------------------------|------------------------|
E |------------------------|------------------------|------------------------|------------------------|

    Part C (0:54-1:18)
    
e |4h5---------------4-----|------------------------|------------------------|------------------4--5--|
B |---------------------7--|------------------5-----|5/7---7-----------------|---------------7--------|
G |------------------------|------------------------|------------------------|------------------------|
D |------------------------|------------------------|------------------------|------------------------|
A |------------------------|------------------------|------------------------|------------------------|
E |------------------------|------------------------|------------------------|------------------------|
                                                                                                        
e |4-----------------------|------------------------|------------------------|------------------4-----|
B |------5-----------------|------------------------|------------------------|------------5-----------|
G |---------6--------------|------------------------|------------------------|------4/6---------------|
D |------------------------|------------------------|------------------------|------------------------|
A |------------------------|------------------------|------------------------|------------------------|
E |------------------------|------------------------|------------------------|------------------------|
                                                                                                        
e |4h5---------------4-----|------------------------|------------------------|------------------------|
B |---------------------7--|------------------5-----|5/7---7-----------------|------------10-12/14-10-|
G |------------------------|------------------------|------------------------|---------9--------------|
D |------------------------|------------------------|------------------------|------------------------|
A |------------------------|------------------------|------------------------|------------------------|
E |------------------------|------------------------|------------------------|------------------------|
                                                                                                        
e |------12-------------12-|---------12/14-12-------|------------------------|------------------4-----|
B |12-------12-------------|------------------14----|------------------------|------------5-----------|
G |------------------------|---------------------14-|13h14-14----------------|------6-----------------|
D |------------------------|------------------------|------------------------|------------------------|
A |------------------------|------------------------|------------------------|------------------------|
E |------------------------|------------------------|------------------------|------------------------|

    Part D (1:18-1:43)
    
e |4h5---4-----------------|---------------------4--|4h5---4-----------------|---------------4-h5-p4--|
B |---------7--------5--7--|------------------7-----|---------7--------------|------------------------|
G |------------------------|------------------------|------------------------|------------------------|
D |------------------------|------------------------|------------------------|------------------------|
A |------------------------|------------------------|------------------------|------------------------|
E |------------------------|------------------------|------------------------|------------------------|
                                                                                                        
e |------------------------|------------------------|------------------------|------------------------|
B |7-----5--5-----------5--|---------5-----5--7-----|------------------------|------------------------|
G |------------------6-----|------------6--------6--|4-\2--2-----------------|------2-----4-----4/6---|
D |------------------------|------------------------|------------------------|------------------------|
A |------------------------|------------------------|------------------------|------------------------|
E |------------------------|------------------------|------------------------|------------------------|
                                                                                                        
e |------------------------|------------------------|------------------------|------------------------|
B |------------------------|------------------------|------------------------|------5--------------5--|
G |4----\2-----2-----------|---------------------2--|4-----------L---4---6---|4--------6--------6-----|
D |------------------------|------------------6-----|------------------------|------------------------|
A |------------------------|------------------------|------------------------|------------------------|
E |------------------------|------------------------|------------------------|------------------------|
                                                                                                        
e |------------------------|------------------------|------------------------|------------------------|
B |5-----------------7-----|------------------------|------------------------|------------------------|
G |---------------------6--\4-----------2-----------|4-----------------------|------------------------|
D |------------------------|------------------------|------------------------|------------------7-----|
A |------------------------|------------------------|------------------------|------------7-----------|
E |------------------------|------------------------|------------------------|------------------------|

    Part E (1:43-end)
    
e |------------------------|------------------------|------------------------|------------------------|
B |------------------5-----|------------------------|------------------5-----|------------5-h7-p5-----|
G |4-----------4-----------|------------------------|4-----------4-----------|------------------------|
D |------7-----------------|---------------------7--|------7-----------------|---------------------7--|
A |------------------------|------------------7-----|------------------------|------------------------|
E |------------------------|------------------------|------------------------|------------------------|
                                                                                                        
e |------------------------|------------------------|------------------------|------------------------|
B |------------------------|4/5---------------------|------------------------|------------------------|
G |------------------6--7--|------7-----6-----------|6-----------------------|------------------------|
D |------------------------|------------------7-----|------------------7-/9--|------------------7-----|
A |------------------------|------------------------|------------------------|------------7-----------|
E |------------------------|------------------------|------------------------|------------------------|
                                                                                                        
e |------------------------|------------------------|------------------------|------------------------|
B |------------------5-----|------------------------|------------------5-----|------------------------|
G |4-----------4-----------|------------------------|4-----------4-----------|------6-----4-----6-----|
D |------7-----------------|---------------------7--|------7-----------------|------------------------|
A |------------------------|------------------7-----|------------------------|------------------------|
E |------------------------|------------------------|------------------------|------------------------|
                                                                                                        
e |------------------------|------------------------|------------------------|------------------------|
B |------------------------|------------------------|------------------------|------------------------|
G |------------------------|6/7---6-----------------|------------------------|------------------------|
D |9-\7--7-----------------|------------7/9---7-----|------------------------|------------------------|
A |------------------------|------------------------|------------------------|------------------------|
E |------------------------|------------------------|------------------------|------------------------|
Login or Register to remove this ad.