Ads

Fonte (Solo) (Nagi no Asukara) Guitar Tab

Submitted: May 16, 2014 by Tracedawn (Last updated: May 16, 2014)

5
Average: 5 (7 votes)
Download | Listen
Game: Nagi no Asukara
Composer(s): Yoshiaki Dewa, Zentaro Watanabe, Saigenji
Style: Arrangement, Fingerstyle, Natural harmonics

This song is also called Fountain

AutoScroll: Slow | Medium | Fast
"Fonte" (solo version) by Saigenji
From Nagi no Asukara
Tabbed by Primoelodies / Tracedawn



Standard Tuning

            NH    NH    NH                    NH    NH    NH                   NH    NH    NH                                 
      E     E     E     E  H            E     E     E     E  H           E     E     E     E  H           W                 3x
E||------<>12-----------------------|------<>12-----------------------|-----<>12-----------------------|--------------------||
B||------------<>12-----------------|------------<>12-----------------|-----------<>12-----------------|--------------------||
G||*-----------------<>12--L--------|------------------<>12--L--------|-----------------<>12--L--------|--L----------------*||
D||*--------------------------------|---------------------------------|--------------------------------|--L----------------*||
A||---------------------------------|---------------------------------|--------------------------------|--------------------||
E||---8-----------------------------|--10-----------------------------|--0-----------------------------|--------------------||


        NH    NH    NH                    NH    NH    NH                   NH    NH    NH                                  
  E     E     E     E  H            E     E     E     E  H           E     E     E     E  H           H.           E   E   
-----<>12-----------------------|------<>12-----------------------|-----<>12-----------------------|----------------------|
-----------<>12-----------------|------------<>12-----------------|-----------<>12-----------------|---------------8--10--|
-----------------<>12--L--------|------------------<>12--L--------|-----------------<>12--L--------|--L-------------------|
--------------------------------|---------------------------------|--------------------------------|----------------------|
--------------------------------|---------------------------------|--------------------------------|----------------------|
--8-----------------------------|--10-----------------------------|--0-----------------------------|----------------------|


  E  E  E  E  H           E  E  E  E  Q.     S  S    E  E  E  E  H           H        E  E.   E.   
--7--8--7--------------|-----0--------------------|-----0-----------------|-----------------------|
-----------8--L--------|--------0------------7h-8-|--7--------0--L--------|--L-----------8---10---|
-----------0--L--------|-----------0--L-----------|--------7--7--L--------|--L--------------------|
-----------------------|--0-----------------------|-----------------------|-----------------------|
-----------------------|--------------L-----------|-----------------------|-----------------------|
--8--------------------|--------------------------|--0--------------------|-----------------------|


  3   3 3   3  3    3    3     3                                                                              
  E.  S E.  S  Q    Q    Q     Q       E  E  E  E  E  E  E  E     E  E  E  E  H           H.           E  E   
--7-----8-----10----7---------------|-----0--------------------|-----0-----------------|---------------7--8--|
------0------------------8----10----|--------0--8--7-----------|--------0--------------|---------------------|
------------0-------0---------------|-----------0-----7--9--9--|-----------0--L--------|--L------------------|
------------------------------------|--0-----------------------|-----------------------|---------------------|
------------------------------------|--------------------------|-----------------------|---------------------|
--8---------------------------------|--------------------------|--0--------------------|---------------------|


                   |----3----|                                                                                         
   E   E   E   E   Q    Q    Q       E  E  E  E  Q.     S  S     E   E   E  E  E  E  S  S E     H         Q      Q     
--10--10--10--10--10----8----7----|-----0--------------------|-------------------------------|------------------------|
-----------0----------------------|--8-----0------------7h-8-|--10--10--10--8--7-------------|-----------/8----/10----|
---------------0------------------|-----------0--L-----------|-----------0--------7--7s-9-7--|--L---------------------|
----------------------------------|--0-----------------------|-------------------------------|------------------------|
----------------------------------|--------------------------|-------------------------------|------------------------|
---8------------------------------|--------------------------|---0---------------------------|------------------------|


                                                         |----3----|                                                              
  E  E  E  E  Q.       E     E  E  E   Q.     E  S  S    Q    Q    Q    H           H         E.  E.  S S    E.  E.  H        E   
--7--8--7-----------------|-----0---------------------|--------------------------|-----------10---8---7-8-|--7-------------------|
-----------8--L------/10--|--7-----0------------------|--7----8----7----5--------|--L---------------------|------8---8--------L--|
-----------0--L-----------|------------9------L--7S-9-|-----------------0--------|--L---------------------|----------------------|
--------------------------|--0------------------------|--------------------------|------------------------|----------9--------L--|
--------------------------|-----------10------L-------|--------------------------|------------------------|----------------------|
--8-----------------------|---------------------------|--0-----------------------|------------------------|--8-------------------|


                               3   3  3     3                                                                       
  E  E   E  E  Q.     S  S     E.  S  Q     Q    E  E   Q       H        E   E.  E.     E  E   E  E  E  S  S E  E   
---------------------------|---------------------------------|--------------10---8---|--7--8--10--7----------------|
-----8------0--L------7h-8-|--10-----10----10----7-----------|-----------------------|---------------8-------8--8--|
---------------------------|------------------------7S--9----|--L--------------------|-----0---------0--7h-9-------|
--0-----10-----L-----------|-------9-------------------------|-----------------------|-----------------------------|
---------------------------|---------------------------------|-----------------------|-----------------------------|
---------------------------|---0-----------------------------|-----------------------|--8--------------------------|


  S  S  E  E  H         E     E  E  E  Q     E  Q       H.            E   E      E   E   E   E   E   E   E    E   
--3h-5p-3------------------|-------------------------|---------------12--14--|--15------12--10-------------------|
--------------0------------|--------0--7h----8--7----|--L--------------------|------------------12--10------/12--|
-----------5---------------|-----0-------------------|-----------------------|------12------------------12-------|
--0--------------------10--|--9----------------------|-----------------------|-----------------------------------|
---------------------------|-------------------------|-----------------------|---0-------------------------------|
---------------------------|--0----------------------|-----------------------|-----------------------------------|


  E   E   E   E   E   E   E   E      E   E   E   E  H           H.            E  E     T  T  S E  E  Q    E   E  E   
-----------------10--12--15--14--|--14--10-------------------|---------------10--8--|--7h-8p-7-------------------7--|
---------10--12------------------|----------12---------------|----------------------|----------8-----8----8--10-----|
-----12--------------------------|--------------11--L--------|--L-------------------|-------------9-----------------|
--0------------------------------|---------------------------|----------------------|-------------------------------|
---------------------------------|---------------------------|----------------------|-------------------------------|
---------------------------------|---0-----------------------|----------------------|--8----------------------------|


                                                                                       NH    NH    NH           
                                |-----3----|                                                                    
  E  E   E  Q       E  E  E     Q    Q     Q    H            W                   E     E     E     E  H         
--8--7--10--8br--------------|------------------8~--------|--L----------------|-----<>12-----------------------|
-------------------10--8--7--|-------7----10----7---------|--L----------------|-----------<>12-----------------|
-----------------------------|--8-------------------------|-------------------|-----------------<>12--L--------|
--0--------------------------|-------7----10--------------|-------------------|--------------------------------|
-----------------------------|--6-------------------------|-------------------|--------------------------------|
-----------------------------|----------------------------|-------------------|--8-----------------------------|


         NH    NH    NH                   NH    NH    NH                                       NH    NH    NH           
   E     E     E     E  H           E     E     E     E  H           W                   E     E     E     E  H         
------<>12-----------------------|-----<>12-----------------------|-------------------|-----<>12-----------------------|
------------<>12-----------------|-----------<>12-----------------|-------------------|-----------<>12-----------------|
------------------<>12--L--------|-----------------<>12--L--------|--L----------------|-----------------<>12--L--------|
---------------------------------|--------------------------------|-------------------|--------------------------------|
---------------------------------|--------------------------------|-------------------|--------------------------------|
--10-----------------------------|--0-----------------------------|-------------------|--8-----------------------------|


         NH    NH    NH                   NH    NH    NH                                                             
   E     E     E     E  H           E     E     E     E  H           H.           E   E     E  E  E  E  Q.       E   
------<>12-----------------------|-----<>12-----------------------|----------------------|--7--8--7-----------------|
------------<>12-----------------|-----------<>12-----------------|---------------8--10--|-----------8--L-----------|
------------------<>12--L--------|-----------------<>12--L--------|--L-------------------|-----------0--L------8g9--|
---------------------------------|--------------------------------|----------------------|--------------------------|
---------------------------------|--------------------------------|----------------------|--------------------------|
--10-----------------------------|--0-----------------------------|----------------------|--8-----------------------|


  |-------3------|  |----3----|                                                        |-----3----|     |-------3------|   
  Q    Q    E    E  Q    Q    Q       E  S S E  E  H           H.           E  S  S    Q    Q     Q     Q     Q    E   E   
-----------------------------------|------------------------|-----------------------|--7----8----10----10----10----8p--7--|
--8----8----8h--10--7--------------|------------------------|------------------8-10-|-------------------------------------|
-------------------------9----7----|--7--9-7----------------|-----------------------|-------------------------------------|
--0--------------------------------|---------9--7--L--------|--L--------------------|-------------------------------------|
-----------------------------------|------------------------|-----------------------|-------------------------------------|
-----------------------------------|--0---------------------|-----------------------|--8----------------------------------|


  E  E  E  E  Q.      E      E  E   E  E  E.   Q    S    H.           E  S  S     E   E   E  E  E  S S E  E   
--8--7-------------------|------0---------------------|------------------7h-8-|--10--10--10--7---------------|
--------8-----8------10--|--10-----10--8--7h---8----L-|--L--------------------|-----------------8------8--8--|
-----------9-------------|----------------------------|-----------------------|--------------------7-9-------|
--0----------------------|----------------------------|-----------------------|------------------------------|
-------------------------|----------------------------|-----------------------|------------------------------|
-------------------------|---0------------------------|-----------------------|---8--------------------------|


  E  E   E  E  Q.      S   S     E  S  E  S  H        E     H.            E   E      E   E   E   E   E   E  E  S   S  
----------------------10S-12-|--12----14----15--------L--|--L------------12--14--|--15--14--12--10-------------------|
-----8------0--L-------------|------0-----0--------------|-----------------------|---------------0--12--10--8--8S-10-|
-----------------------------|---------------------------|-----------------------|-----------------------------------|
--0-----10-------------------|---------------------------|-----------------------|-----------------------------------|
-----------------------------|---------------------------|-----------------------|---0-------------------------------|
-----------------------------|---0-----------------------|-----------------------|-----------------------------------|


                                                                                  NH    NH    NH           
  E  E   E  E  Q    E  E     E  E  E  E  E  E  E  E     W                   E     E     E     E  H         
--------------------7--8--|--8-----7--5--------------|-------------------|-----<>12-----------------------|
--8--8------0--L----------|--------------8--7--5-----|-------------------|-----------<>12-----------------|
--------------------------|-----------------------8--|--L----------------|-----------------<>12--L--------|
--0-----10-----L----------|-----7--------------------|-------------------|--------------------------------|
--------------------------|--6-----------------------|-------------------|--------------------------------|
--------------------------|--------------------------|-------------------|--8-----------------------------|


         NH    NH    NH                   NH    NH    NH                                       NH    NH    NH           
   E     E     E     E  H           E     E     E     E  H           W                   E     E     E     E  H         
------<>12-----------------------|-----<>12-----------------------|-------------------|-----<>12-----------------------|
------------<>12-----------------|-----------<>12-----------------|-------------------|-----------<>12-----------------|
------------------<>12--L--------|-----------------<>12--L--------|--L----------------|-----------------<>12--L--------|
---------------------------------|--------------------------------|-------------------|--------------------------------|
---------------------------------|--------------------------------|-------------------|--------------------------------|
--10-----------------------------|--0-----------------------------|-------------------|--8-----------------------------|


         NH    NH    NH                   NH    NH    NH                                       NH    NH    NH    NH           
   E     E     E     E  H           E     E     E     E  H           H.           E   E        E     E     E     E  H         
------<>12-----------------------|-----<>12-----------------------|----------------------|--------<>12-----------------------|
------------<>12-----------------|-----------<>12-----------------|---------------8--10--|--<>12--------<>12-----------------|
------------------<>12--L--------|-----------------<>12--L--------|--L-------------------|--------------------<>12--L--------|
---------------------------------|--------------------------------|----------------------|-----------------------------------|
---------------------------------|--------------------------------|----------------------|-----------------------------------|
--10-----------------------------|--0-----------------------------|----------------------|-----8-----------------------------|


  W                                      
-------------------|-------------------||
-------------------|-------------------||
--L----------------|-------------------||
-------------------|-------------------||
-------------------|-------------------||
-------------------|-------------------||




Duration Legend
---------------
W - whole
H - half
Q - quarter
E - 8th
S - 16th
T - 32nd
X - 64th
. - note dotted
|-n-|  - n-tuplets


Tablature Legend
----------------
L - tied note
x - dead note
g - grace note
(n) - ghost note
> - accentuded note
NH - natural harmonic
AH - artificial harmonic
TH - tapped harmonic
SH - semi harmonic
PH - pitch harmonic
h - hammer on
p - pull off
b - bend
br - bendRelease
pb - preBend
pbr - preBendRelease
brb - bendReleaseBend
\n/ - tremolo bar dip
\n - tremolo bar dive
-/n - tremolo bar Release up
/n\ - tremolo bar inverted dip
/n - tremolo bar return
-\n - tremolo bar Release down
S - shift slide
s - legato slide
/ -  slide into from below or out of upwards
\ -  slide into from above or out of downwards
~ - vibrato
W - wide vibrato
tr - trill
TP - tremolo picking
T - tapping
S - slap
P - pop
< - fade in
^ - brush up
v - brush down
Login or Register to remove this ad.

1 comment on Fonte (Solo)

Beautiful

5

Beautiful