Ads

Amber Road Home (Nagi no Asukara) Guitar Tab

Submitted: Feb 28, 2016 by quinndangle2

5
Average: 5 (1 vote)
Download | Listen
Game: Nagi no Asukara
Composer(s): Yoshiaki Dewa, Zentaro Watanabe, Saigenji
Style: Arrangement, Fingerstyle

This song is also called 琥珀色の帰り道

AutoScroll: Slow | Medium | Fast
Amber Road Home (琥珀色の帰り道)
From Nagi no Asukara
Composed by Shunsuke Kawata
Tabbed by Brent Quinn

Let notes ring throughout song

Drop D Capo 3
tempo ~ 80
3/4 Time

     H   E   E     E   E   E   E   E   E     E   E   E   E   E   E     E   E   E   E   E   E
E|---------------|-0-------0-------4---5---|-0-----------0-----------|-0-----------0-------2---|
B|-------2---3---|-------------0-----------|---------0-------2---3---|-------------------------|
G|*--------------|-------------------------|-------------------------|---------2-------2-------|
D|*--------------|---------2---------------|-----2-----------2-------|-0---4---------------4---|
A|---------------|-0---4-----------4---0---|-4-------------------4---|-------------------------|
D|---------------|-------------------------|-------------------------|-------------------------|


   E   E   E   E   E   E     E   E   E   E   E   E     E   E   E   E   E   E     E   E   E   E   E   E   
E|-0-----------0-----------|-------------0-----------|-------------------------|-------------------------|
B|---------------------0---|-2-------0-------0-------|---------0---2-----------|-------------------------|
G|---------2-------2-------|-------------------------|-------------4-------1---|-1---2-------2-----------|
D|-0---4-----------4---0---|-----2---------------2---|-----2-----------2-------|---------2-------2-------|
A|-------------------------|-4-----------------------|-4-------------------4---|-----4---------------4---|
D|-------------------------|-------------------------|-------------------------|-4-----------------------|


   E   E   E   E   E   E     E   E   E   E   E   E     E   E   E   E   E   E     E   E   E   E   E   E    
E|-----------------2---4---|-5-----------------------|-------------5---7---5---|-3-----------------------|
B|-------------------------|-------------1-----------|-------------------------|-------------------------|
G|-------------2-----------|---------2-------2-------|---------2---5-----------|---------0---2---0-------|
D|---------2-------4-------|-----3---------------3---|-----3-----------7---0---|-------------------------|
A|-----4---------------4---|-------------------------|-------------------------|-----3---------------3---|
D|-4-----------------------|-3-----------------------|-3-----------------------|-2-----------------------|


   E   E   E   E   E   E     E   E   E   E   E   E     E   E   E   E   E   E     E   E   E   E   E   E   
E|-1---------------0-------|-------------------------|-------------------------|-------------------------|
B|---------------------3---|-2-------0---2---0-------|---------0-------0---2---|-0-----------------------|
G|---------0---2-----------|-----2-------------------|-2-----------------------|-------------1-----------|
D|-----2-------------------|---------------------4---|-----4---------------4---|---------4-------4-------|
A|-------------------------|-2-----------------------|-2-----------4-----------|-----2---------------2---|
D|-2-----------------------|-------------------------|-------------------------|-2-----------------------|


   E   E   E   E   E   E     E   E   E   E   E   E     E   E   E   E   E   E     E   E   E   E   E   E   
E|-------------------------|-0-------0-------4---5---|-0-----------0---4---5---|-4-------2---2-----------|
B|-----------------2---3---|-------------0-----------|---------0---------------|-----------------3---2---|
G|-------------1-----------|-------------------------|-------------------------|---------2-------2-------|
D|---------4---------------|---------2---------------|-----2-----------2-------|-0---4---------------4---|
A|-----2-------------------|-0---4-----------4---0---|-4-------------------4---|-------------------------|
D|-2-----------------------|-------------------------|-------------------------|-------------------------|


   E   E   E   E   E   E     E   E   E   E   E   E     E   E   E   E   E   E     E   E   E   E   E   E   
E|-------------2-----------|-------------0-----------|-------------4---7-------|-7-----------------------|
B|-0-------------------0---|-2-------0-------0-------|---------0---5---0-------|-------------------------|
G|---------2-------2-------|-------------------------|-------------------------|-------------2-----------|
D|-0---4---------------4---|-----2---------------2---|-----2-------------------|---------2-------2-------|
A|-------------------------|-4-----------------------|-4-------------------4---|-----4---------------4---|
D|-------------------------|-------------------------|-------------------------|-4-----------------------|


   E   E   E   E   E   E     E   E   E   E   E   E     E   E   E   E   E   E     E   E   E   E   E   E   
E|-5---------------2---4---|-5-----------------------|-------------5---7---5---|-3-----------------------|
B|-------------------------|-------------1-----------|-------------------------|-------------------------|
G|-------------2-----------|---------2-------2-------|---------2---5-----------|---------0---2---0-------|
D|---------2-------4-------|-----3---------------3---|-----3-----------7---0---|-------------------------|
A|-----4---------------4---|-------------------------|-------------------------|-----3---------------3---|
D|-4-----------------------|-3-----------------------|-3-----------------------|-2-----------------------|


   E   E   E   E   E   E     E   E   E   E   E   E     E   E   E   E   E   E     E   E   E   E   E   E   
E|-1---------------0-------|-------------------------|-------------------------|-------------------------|
B|---------------------3---|-2-------0---2---0-------|---------------------0---|-------------3-----------|
G|---------0---2-----------|---------------------2---|-1-----------1---2-------|-2---------------2-------|
D|-----2-------------------|-----4-------------------|---------4-------4---2---|---------2-----------2---|
A|-------------------------|-2-------------------0---|-----2-------------------|-0---4-------------------|
D|-2-----------------------|-------------------------|-2-----------2-----------|-------------------------|

   H     Q      E   E   E   E   E   E     E   E   E   E   E   E     E   E   E   E   E   E       
E|------------|-5-----------------------|-------------3---1---3---|-0-----------------------|
B|-2----------|-------------------------|-------------------------|-------------0-----------|
G|-2-----2----|-------------2-----------|-------------2-----------|-------------------------|
D|-2----------|-----0---3-------3---0---|-----0---3-------3-------|---------2-------2-------|
A|-0----------|-------------------------|---------------------3---|-0---4---------------4---|
D|------------|-0-----------------------|-0-----------------------|-------------------------|


   E   E   E   E   E   E     E   E   E   E   E   E     E   E   E   E   E   E     E   E   E   E   E   E  
E|---------------------0---|-------------------------|-------------------------|-------------------------|
B|-------------2---3-------|-------------------------|-------------------------|-------------------------|
G|-------------2-----------|-2-----------2-----------|-------------2-----------|-------------2-----------|
D|---------2-------2-------|-----0---3-------3---0---|-----0---3---0-----------|-2-------2-------2-------|
A|-0---4---------------4---|-------------------------|-----------------0-------|-0---4---------------4---|
D|-------------------------|-0-----------------------|-0-------------------0---|-2-----------------------|


   E   E   E   E   E   E     E   E   E   E   E   E     E   E   E   E   E   E     E   E   E   E   E   E   
E|---------------------5---|-5-----------------------|-------------3---1---3---|-0-----------------------|
B|-----------------2-------|-------------------------|-------------------------|-------------------------|
G|-------------2-----------|-------------2-----------|-------------2-----------|-------------1-----------|
D|---------2---------------|-----0---3-------3---0---|-----0---3-------3-------|---------2-------2-------|
A|-0---4-------------------|-------------------------|---------------------3---|-4---4---------------4---|
D|-------------------------|-0-----------------------|-0-----------------------|-------------------------|


   E   E   E   E   E   E     E   E   E   E   E   E     E   E   E   E   E   E     E   E   E   E   E   E   
E|-0---2---4---5-------0---|-------------------------|-------------------------|-------------------------|
B|-----------------2-------|-3-----------3-----------|-------------3-------2---|-0-----------------------|
G|-------------2-----------|---------2-------2-------|-2-------2-------2-------|-------------1-----------|
D|---------2-------2-------|-----4---------------4---|-----4---------------4---|---------4-------4-------|
A|-----4---------------4---|-2-----------------------|-2-----------------------|-----2---------------2---|
D|-4-----------------------|-------------------------|-------------------------|-2-----------------------|


   H     E   E     E   E   E   E   E   E     E   E   E   E   E   E     E   E   E   E   E   E     
E|-0-------------|-0-------0-------4---5---|-0-----------0---4---5---|-4-------2---2-----------|
B|-0-----2---3---|-------------0-----------|---------0---------------|-----------------3---2---|
G|-1-------------|-------------------------|-------------------------|---------2-------2-------|
D|-4-------------|---------2---------------|-----2-----------2-------|-0---4---------------4---|
A|-2-------------|-0---4-----------4---0---|-4-------------------4---|-------------------------|
D|-2-------------|-------------------------|-------------------------|-------------------------|


   E   E   E   E   E   E     E   E   E   E   E   E     E   E   E   E   E   E     E   E   E   E   E   E   
E|-------------2-----------|-------------0-----------|-------------4---7-------|-7-----------------------|
B|-0-------------------0---|-2-------0-------0-------|---------0---5---0-------|-------------------------|
G|---------2-------2-------|-------------------------|-------------------------|-------------2-----------|
D|-0---4---------------4---|-----2---------------2---|-----2-------------------|---------2-------2-------|
A|-------------------------|-4-----------------------|-4-------------------4---|-----4---------------4---|
D|-------------------------|-------------------------|-------------------------|-4-----------------------|


   E   E   E   E   E   E     E   E   E   E   E   E     E   E   E   E   E   E     E   E   E   E   E   E   
E|-5---------------2---4---|-5-----------------------|-------------5---7---5---|-3-----------------------|
B|-------------------------|-------------1-----------|-------------------------|-------------------------|
G|-------------2-----------|---------2-------2-------|---------2---5-----------|---------0---2---0-------|
D|---------2-------4-------|-----3---------------3---|-----3-----------7---0---|-------------------------|
A|-----4---------------4---|-------------------------|-------------------------|-----3---------------3---|
D|-4-----------------------|-3-----------------------|-3-----------------------|-2-----------------------|

   E   E   E   E   E   E     E   E   E   E   E   E     E   E   E   E   E   E     E   E   E   E   E   E   
E|-1---------------0-------|-------------------------|-------------------------|-------------------------|
B|---------------------3---|-2-------0---2---0-------|---------------------0---|-------------3-----------|
G|---------0---2-----------|---------------------2---|-1-----------1---2-------|-2---------------2-------|
D|-----2-------------------|-----4-------------------|---------4-------4---2---|---------2-----------2---|
A|-------------------------|-2-------------------0---|-----2-------------------|-0---4-------------------|
D|-2-----------------------|-------------------------|-2-----------2-----------|-------------------------|


   W
E|-5------|
B|-2------|
G|-2-----*|
D|-2-----*|
A|-0------|
D|--------|



Login or Register to remove this ad.