Theme of the Flake Gang Weirdos (Mystical Ninja Starring Goemon) Bass Tab

Submitted: Apr 05, 2010 by RexLeRouge

5
Average: 5 (1 vote)
Download | Listen
Game: Mystical Ninja Starring Goemon
Composer(s): Shigeru Araki, Kato Yusuke, Saiko Miki, Yasumasa Kitagawa
Style: Transcription
Series: Goemon

AutoScroll: Slow | Medium | Fast
                        Theme of The Flake Gang weirdos                         


Basse
     Ooh...                                                                    
     H             E    Q     E   Q.      E      Q.      E   E   E   E   E     
G||-----------||-----------------------------|-------------------------------||
D||-----------||*------------11--12----------|----------12--13--12--13--11--*||
A||-----------||*--9s--10----------------10--|--11--------------------------*||
E||-----------||-----------------------------|-------------------------------||


    Q.      E   Q.     E      Q.      E   E   E   E   E   
--------------------------|------------------------------|
*----------11--12---------|----------11--12--11--12------|
*--10------------------9--|--10----------------------13--|
--------------------------|------------------------------|


   Q.      E   Q.     E      Q.      E   E   E   E   E   
-------------------------|------------------------------|
----------11--12---------|----------11--12--11--12------|
--10------------------9--|--10----------------------13--|
-------------------------|------------------------------|


   Q.      E   Q.      E      Q.      E   E   E   E   E   
--------------------------|------------------------------|
----------12--13----------|----------12--13--12--13------|
--11------------------10--|--11----------------------14--|
--------------------------|------------------------------|


   Q.      E   Q.     E      Q.      E   E   E   E   E     
-------------------------|-------------------------------||
----------11--12---------|----------11--12--11--12------*||
--10------------------9--|--10----------------------13--*||
-------------------------|-------------------------------||


   Q.      E   E   E   E   E    
------------------------------||
----------11--12--11--12------||
--10----------------------13--||
------------------------------||




Duration Legend
---------------
W - whole
H - half
Q - quarter
E - 8th
S - 16th
. - note dotted
|-n-|  - n-tuplets


Tablature Legend
----------------
s - legato slide
Login or Register to remove this ad.

1 comment on Theme of the Flake Gang Weirdos

Thank god you did this.

5

Thank god you did this.