Odeo Town (First Start) (Mystical Ninja Starring Goemon) Guitar Tab

Submitted: Apr 07, 2010 by RexLeRouge

5
Average: 5 (1 vote)
Download | Listen
Game: Mystical Ninja Starring Goemon
Composer(s): Shigeru Araki, Kato Yusuke, Saiko Miki, Yasumasa Kitagawa
Style: 2 or more instruments, Alternate picking, Transcription
Series: Goemon

AutoScroll: Slow | Medium | Fast
                           

                           Odeo Town (First Start)                             


Mélodie
     H        E   E  E  E     Q.     E  Q.     E     E  E  E  E  E  E  E  E   
E||------------------------|----------------------|--------------------------|
B||--------------10--9--7--|----------------------|--------------------------|
G||------------------------|--9------6---------6--|--7--6--7--9--6--6--------|
D||------------------------|----------------------|--------------------9--7--|
A||------------------------|----------------------|--------------------------|
E||------------------------|----------------------|--------------------------|


  E  E  E  E  H           H        E   E  E  E     Q.     E  Q.     E   
-----------------------|------------------------|----------------------|
-----------------------|--------------10--9--7--|----------------------|
-----6--7--6-----------|------------------------|--9------6---------6--|
--9--------------------|------------------------|----------------------|
-----------------------|------------------------|----------------------|
-----------------------|------------------------|----------------------|


  E  E  E  E  E   E  E   E     E  E  H.              W                 
----------------------------|---------------------|-------------------|
--------------7--10-----10--|-----9--9------------|-------------------|
--7--6--7--9----------------|---------------------|-------------------|
----------------------------|---------------------|-------------------|
----------------------------|---------------------|-------------------|
----------------------------|---------------------|-------------------|


  W                   W                   W                   W                 
-------------------|-------------------|-------------------|-------------------|
-------------------|-------------------|-------------------|-------------------|
-------------------|-------------------|-------------------|-------------------|
-------------------|-------------------|-------------------|-------------------|
-------------------|-------------------|-------------------|-------------------|
-------------------|-------------------|-------------------|-------------------|


  H         E  E  E  E      Q    Q     E  E  E  E     Q.     E  H         
---------------7-----9--|--10-------------7-----9--|--9------7--7--------|
-----------10-----------|-------------10-----------|---------------------|
------------------------|--------------------------|---------------------|
------------------------|--------------------------|---------------------|
------------------------|--------------------------|---------------------|
------------------------|--------------------------|---------------------|


  Q    Q    Q     Q        Q     E  E  E   E  E   E   
-------7----9----10----|--12----10--9-----10-----12--|
-----------------------|-----------------------------|
-----------------------|-----------------------------|
-----------------------|-----------------------------|
-----------------------|-----------------------------|
-----------------------|-----------------------------|


  Q     E  E  E   E  E  E     Q    Q     E  E  E   E     E   E   H.            
--L----10--9---------7--9--|--L----9--------7--9--12--|-----10--10------------|
-----------------10--------|------------10------------|-----------------------|
---------------------------|--------------------------|-----------------------|
---------------------------|--------------------------|-----------------------|
---------------------------|--------------------------|-----------------------|
---------------------------|--------------------------|-----------------------|


  W                   W                   W                   W                 
-------------------|-------------------|-------------------|-------------------|
-------------------|-------------------|-------------------|-------------------|
-------------------|-------------------|-------------------|-------------------|
-------------------|-------------------|-------------------|-------------------|
-------------------|-------------------|-------------------|-------------------|
-------------------|-------------------|-------------------|-------------------|


   Q     E  E  E   E  E   E     Q     E  E  E   E  E  E   
--12----10--9-----10-----12--|--L----10--9---------7--9--|
-----------------------------|-----------------10--------|
-----------------------------|---------------------------|
-----------------------------|---------------------------|
-----------------------------|---------------------------|
-----------------------------|---------------------------|


  Q    Q    E   E  E   E     H        H           W                 
--L----9----7---------10--|--L-----------------|-------------------|
---------------10---------|--------------------|-------------------|
--------------------------|--------------------|-------------------|
--------------------------|--------------------|-------------------|
--------------------------|--------------------|-------------------|
--------------------------|--------------------|-------------------|


  W                   W                  
-------------------|-------------------||
-------------------|-------------------||
-------------------|-------------------||
-------------------|-------------------||
-------------------|-------------------||
-------------------|-------------------||


                                



Harmonie
     W                   W                   W                 
E||-------------------|-------------------|-------------------|
B||-------------------|-------------------|-------------------|
G||-------------------|-------------------|-------------------|
D||-------------------|-------------------|-------------------|
A||-------------------|-------------------|-------------------|
E||-------------------|-------------------|-------------------|


  Q     E  E  E   E  E  E     Q     E  E  H           W                 
-------10--9---------------|-----------------------|-------------------|
-----------------10--------|--7----10--9-----------|-------------------|
------------------------9--|-----------------------|-------------------|
---------------------------|-----------------------|-------------------|
---------------------------|-----------------------|-------------------|
---------------------------|-----------------------|-------------------|


  W                   E  E  E  E  E  E  E  E     Q    Q     Q    Q     
-------------------|--------------7-----------|--7---------------7----|
-------------------|-----------7-----7--------|-------9----10---------|
-------------------|--------9-----------9-----|-----------------------|
-------------------|-----9-----------------9--|-----------------------|
-------------------|--------------------------|-----------------------|
-------------------|--------------------------|-----------------------|


  Q     E  E  E  E  E  E     Q     Q    Q    Q       Q     E  E  E  E  E  E   
--9----10--9-----------7--|--L--------------------|-----------7-----------9--|
-----------------9--------|-------10----9----7----|--9----10-----------------|
--------------------------|-----------------------|-----------------9--------|
--------------------------|-----------------------|--------------------------|
--------------------------|-----------------------|--------------------------|
--------------------------|-----------------------|--------------------------|


  H        Q    Q        E  E  E  E   E  Q.         E  E  E  E   E  E  E  E   
--L--------7----9----|--10--9-----7-------------|--10--9-----7------7-----9--|
---------------------|---------------10---------|---------------10-----------|
---------------------|--------------------------|----------------------------|
---------------------|--------------------------|----------------------------|
---------------------|--------------------------|----------------------------|
---------------------|--------------------------|----------------------------|


  Q.     E  H           W                     Q.        E   H         
--9------7--7--------|-------------------|---------------------------|
---------------------|-------------------|--(10)------(10)--L--------|
---------------------|-------------------|---------------------------|
---------------------|-------------------|---------------------------|
---------------------|-------------------|---------------------------|
---------------------|-------------------|---------------------------|


   Q.       E   H            Q.       E   H            Q.       E   H         
-------------------------|-------------------------|-------------------------|
--(9)------(9)--L--------|--(8)------(8)--L--------|--(7)------(7)--L--------|
-------------------------|-------------------------|-------------------------|
-------------------------|-------------------------|-------------------------|
-------------------------|-------------------------|-------------------------|
-------------------------|-------------------------|-------------------------|


  Q     Q     Q     Q        Q    Q    Q     Q       Q    Q    E   E  E   E   
-------10----------10----|--10----9----7----------|--7----7------------------|
-------------10----------|------------------10----|------------7--10-----10--|
-------------------------|------------------------|--------------------------|
-------------------------|------------------------|--------------------------|
-------------------------|------------------------|--------------------------|
-------------------------|------------------------|--------------------------|


  E  E  H.                Q.        E   H            Q.       E   H         
---------------------|---------------------------|-------------------------|
--L--9--9------------|--(10)------(10)--L--------|--(9)------(9)--L--------|
---------------------|---------------------------|-------------------------|
---------------------|---------------------------|-------------------------|
---------------------|---------------------------|-------------------------|
---------------------|---------------------------|-------------------------|


   Q.       E   H            H          Q    Q     
-------------------------|-------------------7----|
--(8)------(8)--L--------|--(7)--------10---------|
-------------------------|------------------------|
-------------------------|------------------------|
-------------------------|------------------------|
-------------------------|------------------------|


                                 |----3----|                
  E   E   E   E  E  E  E  E      Q    Q    Q     Q    Q     
--9--10--12------------------|--10----9----7---------------|
-------------10-----7-----7--|------------------10----9----|
-----------------------------|-----------------------------|
-----------------------------|-----------------------------|
-----------------------------|-----------------------------|
-----------------------------|-----------------------------|


  Q.      E   H          
--7--------------------||
---------10--10--------||
-----------------------||
-----------------------||
-----------------------||
-----------------------||




Duration Legend
---------------
W - whole
H - half
Q - quarter
E - 8th
S - 16th
T - 32nd
X - 64th
. - note dotted
|-n-|  - n-tuplets


Tablature Legend
----------------
L - tied note
x - dead note
g - grace note
(n) - ghost note
> - accentuded note
NH - natural harmonic
AH - artificial harmonic
TH - tapped harmonic
SH - semi harmonic
PH - pitch harmonic
h - hammer on
p - pull off
b - bend
br - bendRelease
pb - preBend
pbr - preBendRelease
brb - bendReleaseBend
\n/ - tremolo bar dip
\n - tremolo bar dive
-/n - tremolo bar Release up
/n\ - tremolo bar inverted dip
/n - tremolo bar return
-\n - tremolo bar Release down
S - shift slide
s - legato slide
/ -  slide into from below or out of upwards
\ -  slide into from above or out of downwards
~ - vibrato
W - wide vibrato
tr - trill
TP - tremolo picking
T - tapping
S - slap
P - pop
< - fade in
^ - brush up
v - brush down
Login or Register to remove this ad.

1 comment on Odeo Town (First Start)

You're my new best friend.

5

You're my new best friend.