Ads

The Village in May (My Neighbor Totoro) Guitar Tab

Submitted: Nov 07, 2012 by JordanVS

5
Average: 5 (8 votes)
Download | Listen
Game: My Neighbor Totoro
Composer(s): Joe Hisaishi
Style: Arrangement, Fingerstyle

AutoScroll: Slow | Medium | Fast
The Village in May                                       
My Neighbor Totoro
Gogatsu no Mura-Tonari no Totoro
Joe Hisaishi
JordanVS





          |--3-|  |--3--|  |--3-|                                |--3-|  |--3--|  |--3-|   
     Q    Q    E  E  E  E  Q    E     Q    Q    H           Q    Q    E  E  E  E  Q    E   
E||--5----5----7--5--4--5--7----5--|--3----8-------------|--1----1----3--1--0--1--3----1--|
B||--------------------------------|--1------------------|--1-----------------------------|
G||--------------------------------|------------5--------|---------------0----------------|
D||--4------------3----------------|--2---------7--------|--0-----------------------------|
A||--------------------------------|---------------------|--------------------------------|
E||--------------------------------|---------------------|--------------------------------|


                              |--3-|  |--3--|  |--3-|                |--3--|  |--3-|   
  Q    Q    Q    Q       Q    Q    E  E  E  E  Q    E     Q    Q     Q     E  Q    E   
--0-------------------|------------0-----------0-------|-------3-----8-------------0--|
----------------------|--3----3-------3--2--3-------3--|--1---------10----------------|
-------1----2----0----|--------------------------------|----------------------7-------|
--2-------------------|--4------------3----------------|--2---------------10----------|
----------------------|--------------------------------|------------------------------|
----------------------|--------------------------------|------------------------------|


  |--3-|  |--3-|                                                |--3-|  |--3-|   
  Q    E  Q    E  Q    Q       Q    Q    Q    Q       Q    Q    Q    E  Q    E   
--1----3--1----3--0----0----|----------------------|-------3----1----0----------|
--1-------------------------|--1-------------------|-------1------------3----1--|
------------------0---------|----------------------|--0-------------------------|
--0-------------------------|--2-------------------|----------------------------|
----------------------------|--3---------0----2----|--3---------0---------------|
----------------------------|-------3--------------|----------------------------|


            |--3-|  |--3-|          |--3--|       |--3--|          |--3--|  |--3-|  |--3-|   
  Q    Q    Q    E  Q    E     Q    E  E  E  Q    E  E  E     Q    E  E  E  Q    E  Q    E   
-------0--------------------|-------3--2--1--0----0--------|--------------------------------|
-------1----3----0----------|------------------------4--3--|--1----1-----0------------------|
--2-----------------2----0--|--L----0-------------0--------|----------3-----2----0--2----0--|
--0-------------------------|------------------------------|--0-----------------------------|
----------------------------|--3-------------0-------------|--------------------------------|
------------3---------------|------------------------------|----------------3---------------|


            |--3-|  |--3-|               |--3-|  |--3-|                        
  Q    Q    Q    E  Q    E     Q    Q    Q    E  Q    E     H        H         
-------3----1----0----------|-------0--------------------|-----------0--------|
-------1------------3----1--|-------1----3----0-------1--|--L--------1--------|
--0-------------------------|--2-----------------2-------|--------------------|
----------------------------|--0-------------------------|--------------------|
--3---------0---------------|----------------------------|--3--------0--------|
----------------------------|------------3---------------|--------------------|


  |--3--|  |--3--|  |--3--|  |--3--|     |--3-|  |--3-|  |--3-|  |--3-|   
  E  E  E  E  E  E  E  E  E  E  E  E     Q    E  Q    E  Q    E  Q    E   
--0--1--0-----0-----------------------|--1----0-----------------------0--|
-----------3-----3--1--3--1-----1-----|----------3----1-------1--3-------|
-----------------------------3-----3--|------------------2---------------|
--------------------0--------2--------|--3-------------------------------|
--3--------3--------------------------|------------------3---------------|
--------------------------------------|----------------------------------|


  |--3-|  |--3-|  |--3-|  |--3-|     |--3-|                   |--3-|  3         3        
  Q    E  Q    E  Q    E  Q    E     Q    E  Q    H           Q    E  Q    Q    E  Q     
--1----0-----------------------1--|--0-------0-------------|--3----0--------------------|
----------3----1-------1--3-------|-------4-------1--------|----------1-----------------|
------------------1---------------|------------------------|---------------2----0--2----|
--3-------------------------------|------------------------|---------------0-------2----|
----------------------------------|--3---------------------|--3-------3-----------------|
----------------------------------|---------------3--------|----------------------------|


  |--3-|  |--3-|  |--3-|  |--3-|     |--3-|  |--3-|  |--3-|  |--3-|                          
  Q    E  Q    E  Q    E  Q    E     Q    E  Q    E  Q    E  Q    E     E  Q    Q.     Q     
--1----0-----------------------0--|--1----0-----------------------1--|--3--3----3------2----|
--1-------3----1-------1--3-------|----------3----1-------1--3-------|--3--3----3------2----|
------------------2---------------|------------------1---------------|--0--0----0------2----|
--3-------------------------------|--3-------------------------------|----------------------|
------------------3---------------|----------------------------------|-----------------0----|
----------------------------------|----------------------------------|--3--3----3-----------|


                                   |--3-|  |--3-|               |--3-|  |--3-|   
  Q    Q    Q    Q       Q    Q    Q    E  Q    E     Q    Q    Q    E  Q    E   
--1-------------------|-------3----1----0----------|-------0--------------------|
--0-------------------|-------1------------3----1--|-------1----3----0----------|
--0-------------------|--0-------------------------|--2-----------------2----0--|
----------------------|----------------------------|--0-------------------------|
--2---------0----2----|--3---------0---------------|----------------------------|
-------3--------------|----------------------------|------------3---------------|


                                  |--3-|  |--3-|               |--3-|  |--3-|   
  H        Q.     E     Q    Q    Q    E  Q    E     Q    Q    Q    E  Q    E   
-----------1---------|----------------------------|-------3----1----0----------|
---------------------|-------1----3---------------|-------1------------3----1--|
--L--------2------0--|--2---------4----0--2----0--|--0-------------------------|
---------------------|--0-------------------------|----------------------------|
--3--------0---------|----------------------------|--3---------0---------------|
---------------------|------------3---------------|----------------------------|


            |--3-|  |--3-|           |--3-|  |--3-|                               
  Q    Q    Q    E  Q    E     E  E  Q    E  Q    E  Q       Q    Q    Q    Q     
-------0--------------------|-----------------------------|----------------------|
-------1----3----0-------1--|--L---------------------0----|--1----1----1----1----|
--2-----------------2-------|-----0--2----0--3----0-------|------------0----0----|
--0-------------------------|-----------------------------|-------2--------------|
----------------------------|--3--------------------------|--3--------------3----|
------------3---------------|----------------3------------|----------------------|


            |--3--|  |--3--|                                      |--3--|  |--3--|   
  Q    Q    E  E  E  E  E  E     Q    Q    Q    Q       Q    Q    E  E  E  E  E  E   
---------------------------0--|--1-------------------|------------------------0--1--|
-------1----------0--1--3-----|--3----1---------1----|-------3----------1--3--------|
--2----2----0--2--------------|--2----2---------2----|--3----3----0--3--------------|
--3------------------2--------|--0-------------------|---------------------3--------|
------------------------------|------------3---------|------------------------------|
------------------------------|----------------------|--3---------------------------|


                                  |--3-|  |--3-|                          
  Q    Q    Q    Q       H        Q    E  Q    E     Q    Q    Q    Q     
--3-------------------|---------------------------|--1---------0---------|
--3----1---------1----|--2------------------------|-------3---------3----|
--3----0---------0----|-----------3----2--1----2--|-------2---------2----|
--2-------------------|---------------------------|--3----3----0----3----|
------------3---------|--0------------------------|----------------------|
----------------------|-----------3---------------|----------------------|


                                                          |--3-|  |--3-|   
  Q    Q    Q    Q       Q    Q    Q    Q       Q    Q    Q    E  Q    E   
--3---------5---------|--1----2----3---------|-------3----1----0----------|
-----------------1----|--1----2----3---------|-------1------------3----1--|
-------0--------------|--2----3----4---------|--0-------------------------|
----------------------|--3----4----5---------|----------------------------|
-----------------0----|----------------------|--3----3----0-------0-------|
-------3--------------|-----------------3----|----------------------------|


            |--3-|  |--3-|                                      |--3-|  |--3-|   
  Q    Q    Q    E  Q    E     Q    E  H        E     Q    Q    Q    E  Q    E   
-------0--------------------|-------0--1-----------|----------------------------|
-------1----3----0----------|----------------------|-------1----3---------------|
--2-----------------2----0--|-------0-----------0--|--2---------4----0--2----0--|
--0----0--------------------|----------------------|--0-------------------------|
----------------------------|--3-------0-----------|----------------------------|
------------3-------3-------|----------------------|------------3---------------|


            |--3-|  |--3-|               |--3-|  |--3-|           |--3-|  |--3-|        
  Q    Q    Q    E  Q    E     Q    Q    Q    E  Q    E     E  E  Q    E  Q    E  Q     
-------3----1----0----------|-------0--------------------|-----------------------------|
-------1------------3----1--|-------1----3----0-------1--|--L---------------------0----|
--0-------------------------|--2-----------------2-------|-----0--2----0--3----0-------|
----------------------------|--0----0--------------------|-----------------------------|
--3----3----0-------0-------|----------------------------|--3--------------------------|
----------------------------|------------3-------3-------|----------------3------------|


  ^                                      
  W                   W                  
-------------------|-------------------||
--1----------------|--L----------------||
--0----------------|--L----------------||
--2----------------|--L----------------||
--3----------------|--L----------------||
-------------------|-------------------||




Duration Legend
---------------
W - whole
H - half
Q - quarter
E - 8th
. - note dotted
|-n-|  - n-tuplets


Tablature Legend
----------------
L - tied note
^ - brush up
v - brush down
Login or Register to remove this ad.

1 comment on The Village in May

This is wonderful!

This is wonderful!