Ads

Sanpo (My Neighbor Totoro) Guitar Tab

Submitted: Oct 29, 2012 by JordanVS

5
Average: 5 (8 votes)
Download | Listen
Game: My Neighbor Totoro
Composer(s): Joe Hisaishi
Style: Arrangement, Fingerstyle, Percussion

This song is also called Stroll / Opening Theme

AutoScroll: Slow | Medium | Fast
Sanpo                                 
Stroll/Opening Theme
My Neighbor Totoro
Joe Hisaishi & Azumi Inoue
JordanVS


*Capo on 3rd fret

4/4 
BPM=120


           |--3--|  |--3--|  |--3--|                              
     E.  S E  E  E  E  E  E  E  E  E     E.  S E.  S E.  S E.  S  
E||-----------------------------------|--------------------------|
B||-----------------0-----0--2-----2--|--3---2-0-----------------|
G||--------2-----2--------------------|------------2-1---1-------|
D||------2----2--------2--------2-----|--------------------4---2-|
A||--0--------------0-----------------|--0-----------0-----------|
E||-----------------------------------|--------------------------|


        |--3--|  |--3--|  |--3--|           |--3--|  |--3--|        
  E.  S E  E  E  E  E  E  E  E  E     E.  S E  E  E  E  E  E  Q     
-----------------------------------|-------------------------------|
-----------------0-----0--2-----2--|--3---2----0-------------------|
--------2-----2--------------------|--------2-----1--2-----1--2----|
--L---2----2--------2--------2-----|--------------------4----------|
--0--------------0-----------------|--0--------------0-------------|
-----------------------------------|-------------------------------|


                                     |---3---|                     |--3--|             
  E  E  E  E  E  E  E   E      Q     E   E   E   Q    Q       Q    E  E  E  Q    Q     
---------------------------|--------12--12--12--12---------|--2----0-------------2----|
--0--2--3--4--5--7--9--10--|--12-----9---9---9---9---------|--3-------3--2--0---------|
---------------------------|---------9---9---9---9----x----|--2-------------1---------|
--------0--1--2--4--6---7--|---9-----9-----------9----x----|--0----0--------0----0----|
--2--4---------------------|-------------------------------|--------------------------|
---------------------------|-------------------------------|--------------------------|


       |--3--|                    |--3--|                      |--3--|             
  Q    E  E  E  Q    Q       Q    E  E  E  E  E  E  E     Q    E  E  E  Q    Q     
--0------------------0----|----------------------------|----------------5---------|
--0----3--2--0------------|--3----3--2--0--------------|-------------5--5---------|
----------------2---------|--2-------------2--1-----1--|--2-------6-----6----x----|
--------------------------|----------------------4-----|-------7-------------x----|
--4----4-------------4----|--2----2--------------------|--0-------------0---------|
----------------2---------|----------------0-----0-----|-------0------------------|


    Q    Q    Q    Q       Q    Q    Q    Q       E.  S E.  S Q    E.  S  
|-------------5---------|--0----2----0---------|------------0-5----4---2-|
|--------5----5---------|--3----3----3---------|--------2-----2----------|
|*--6----6----6---------|------------1---------|------2-------2----------|
|*--7----7--------------|----------------------|-------------------------|
|---0---------0---------|--2---------2---------|--0----------------------|
|--------0---------0----|-------0---------0----|--------4-----2----2-----|


  Q    Q    E  S S E  E     E.  S E.  S E.  S E.  S    Q    Q    Q    Q     
--0---------0--0-0-0--0--|--2---2-2---2-----5-4---2-|--0-------------------|
--3---------0--0-0-0--0--|--3-----------------------|--0-------------------|
--2---------1--1-1-1--1--|--2-----------------------|----------------------|
------------2------------|--0-----0-----------0-----|------------0----2----|
--2----2-----------------|--------------0-----------|--4----4--------------|
-------------------------|--------------------------|----------------------|


                                                  ^                      
  E.  S E.  S Q    Q       Q    Q    Q    Q       E.  S E.  S Q    Q     
--2---0-2---0-----------|----------------------|--1---1-1---1-L---------|
--3-----------0----2----|----------------------|--3---3-3---3-L---------|
--2-----------1---------|--2--------------x----|--2---------------------|
--0---------------------|-----------------x----|--0----------------0----|
------------------------|--0---------0---------|--------------0---------|
--------------0---------|-------0--------------|------------------------|


  ^                                               ^                    
  E.  S E.  S Q    Q       Q    Q    Q    Q       Q    Q    Q    Q     
--0---0-0---0-L---------|----------------------|----------------------|
--2---2-2---2-L---------|--3----3----3----0----|--2-------------------|
--2---------------------|--2-------------------|--2-------------------|
--2---------------------|--0---------3---------|--2-------------------|
--0----------------0----|----------------------|--0---------0---------|
--------------0---------|----------------------|-------0---------4----|


  E.  S E.  S Q    E.  S    Q    Q    E.  S E.  S    Q     Q    Q    Q     
--------5---5-4----------|----------------2-4---5-|--7--------------------|
--------------5----5---7-|--L---------------------|--7----10----9----7----|
--2---2-------4----------|------------------------|--8--------------------|
-------------------------|--0---------0-----0-----|------------------4----|
--------------4----------|-------0----------------|-------------6---------|
--2----------------------|------------------------|--7--------------------|


  ^                                                                       
  Q    Q    Q    Q       E.  S E.  S E.  S E.  S    Q    Q    Q    E.  S  
--0-------------------|--5---4-5---0-----5-L---4-|--L--------------0---0-|
--0-------------------|--------------2---------5-|--L--------------------|
--1-------------------|--6-----------------------|-----------------------|
--2----0--------------|--------------------------|-------6---------------|
------------4----2----|--0-----------0-----------|--4---------4----------|
----------------------|--------0-----------0-----|-----------------------|


                                                  ^                        
                                                       |--3--|             
  Q    Q    Q    Q       Q    Q    Q    Q         Q    E  E  E  Q    Q     
--2---------4---------|--5--------------------||--2----0-------------2----|
------------0---------|--5--------------------||--3-------3--2--0---------|
--2----x---------x----|--6--------------x----*||--2-------------1---------|
--0----x----2----x----|-----------------x----*||--0----0--------0----0----|
----------------------|--0---------0----------||--------------------------|
----------------------|-------0---------------||--------------------------|


  ^                          ^                            ^                         
       |--3--|                    |--3--|                      |--3--|              
  Q    E  E  E  Q    Q       Q    E  E  E  E  E  E  E     Q    E  E  E  Q    Q      
--0------------------0----|----------------------------|---------------------------|
--0----3--2--0------------|--3----3--2--0--------------|---------------------------|
----------------2---------|--2-------------2--1-----1--|--2----2--2--2--2----L/----|
--------------------------|----------------------4-----|--2----2--2--2--1----L/----|
--4----4-------------4----|--2----2--------------------|--0------------------------|
----------------2---------|----------------0-----0-----|-------0--------1----L/----|


  Q    Q    Q    Q       Q    Q    Q    Q       E.  S E.  S Q    E.  S  
------------6---------|--1----3----1---------|------------1-6----5---3-|
-------6----6---------|----------------------|--------3-----3----------|
--7----7----7---------|------------2---------|------3-------3----------|
--8-------------------|----------------------|-------------------------|
-------8---------8----|--3---------3---------|--1-----0----------------|
--6---------6---------|-------1---------1----|--------------3----3-----|


  Q    Q    E  S S E  E     E.  S E.  S E.  S E.  S    Q    Q    Q    Q     
------------1--1-1-1--1--|--3---3-3---3-----6-5---3-|--1-------------------|
--6---------1--1-1-1--1--|--4---4-4---4-------------|--1-------------------|
--3---------2--2-2-2--2--|--------------------------|----------------------|
------------3------------|--1-----------1-----------|--0----0----1----3----|
--3----3-----------------|--------1-----------------|----------------------|
-------------------------|--------------------------|----------------------|


                                                  ^                      
  E.  S E.  S Q    Q       Q    Q    Q    Q       E.  S E.  S Q    Q     
--3---1-3---1-----------|----------------------|--2---2-2---2-L---------|
--------------1----3----|----------------------|--4---4-4---4-L---------|
--------------2---------|--3--------------x----|--3---------------------|
--1---------------------|-----------------x----|--1----------------1----|
------------------------|--1---------1---------|--------------1---------|
--------------1---------|-------1--------------|------------------------|


  ^                                               ^                    
  E.  S E.  S Q    Q       Q    Q    Q    Q       Q    Q    Q    Q     
--1---1-1---1-L---------|----------------------|----------------------|
--3---3-3---3-L---------|--4----4----4----1----|--3-------------------|
--3---------------------|--3-------------------|--3-------------------|
--3---------------------|--1---------4---------|--3-------------------|
--1----------------1----|----------------------|--1---------1----0----|
--------------1---------|----------------------|-------1--------------|


  E.  S E.  S Q    E.  S    Q    Q    E.  S  E.  S    Q     Q     Q    Q     
--------6---6-5----------|-----------------------6-|--8---------------------|
--------------6----6---8-|--L-------------8-10-----|--8----11----10----8----|
--3---3-------5----------|-------------------------|--9---------------------|
-------------------------|-------------------------|-------------------5----|
--------------5----------|--6---------6------6-----|--------------7---------|
--3----------------------|-------6-----------------|--8---------------------|


  ^                                                                        
  Q    Q    Q    Q       E.   S E.  S E.  S E.  S    Q    Q    Q    E.  S  
--1-------------------|--6------6---------6-L---5-|--L--------------1---1-|
--1-------------------|------10-----6-----------6-|--L--------------------|
--2-------------------|--7------------7-----------|-----------------------|
--3----1----0---------|---------------------------|--0---------0----------|
-----------------3----|---------8-----------8-----|-------0---------------|
----------------------|--6------------6-----------|-----------------------|


  Q    Q    Q    Q       Q    Q    Q    Q       E.   S E.  S E.  S E.  S  
--3---------5---------|--6-------------------|--6------6-----------6---5-|
----------------------|--6-------------------|--6---10-6---6-----------6-|
--3----x----5----x----|--7--------------x----|--7------------7---7-------|
--1----x----3----x----|------------8----x----|---------------8-----------|
----------------------|-------8--------------|---------8-----------8-----|
----------------------|--6-------------------|--6------------6-----------|


  Q    Q    Q    E.  S    Q    Q    Q    Q       E  E  E  E  E  E  E  E   
--L--------------1---1-|--3---------5---------|--6--6--4-----0-----------|
--L--------------------|-------4---------6----|--6--------7-----3--2--0--|
-----------------------|-------3---------5----|--------------------------|
--0---------0----------|-------5---------7----|--------------------------|
-------0---------------|----------------------|--------------------------|
-----------------------|----------------------|--6-----------L-----------|


                                  |--3--|              
  E  E  E  E  E  E  E  E     Q    E  E  E  Q    Q      
--------------------------|-------6--6--6--6---------||
--------------------------|-------6--6--6--6---------||
--3--3--1-----------------|-------7--7--7--7---------||
-----------4--2--0--------|----------------8---------||
--------------------3--2--|--1-----------------------||
--------------------------|-------6-------------6----||




Duration Legend
---------------
W - whole
H - half
Q - quarter
E - 8th
S - 16th
. - note dotted
|-n-|  - n-tuplets


Tablature Legend
----------------
L - tied note
x - percussion
/ -  slide into from below or out of upwards
^ - brush up
v - brush down
Login or Register to remove this ad.

1 comment on Sanpo

I've been wanting to make

5

I've been wanting to make Totoro arrangements, but now that you are I don't have to.