Path of the Wind (My Neighbor Totoro) Ukulele Tab

Submitted: May 07, 2015 by CandyCane52

3
Average: 3 (2 votes)
Download | Listen
Game: My Neighbor Totoro
Composer(s): Joe Hisaishi
Style: Transcription

AutoScroll: Slow | Medium | Fast
Path of the Wind
My Neighbour Totoro
Joe Hisaishi
CandyCane52
03/05/2015
 :00
G----------------------------------	-----------------
C-3------3-----3---2-3-----2-3------	-2-3-------------
E--1------1-----1-------------------	--------10-11----
A----3-----3-----3----1--------1--x2	----1---------13- x2
 :19/:44						    :32/:55
G-----------------------------------------------------------------------------------------------------------------
C-0-3--------3--0-3-------------------------------------0----0-3--------3--0-3----------------3-------------0-3---
E-----1--1-3--------1(1-1)--3--3-----------------4-3--1---3------1--1-3--------1(1-1)--3--3---4-----------3-------
A-------------------------1------1-3-3-3-6-5-3-1-------------------------------------1------1-3-3-3-6-5-3-------x2
 1:08							        1:20
G----------------------------------------------------------------------------------------------------------------------
C-3-2-1-----1-----------1-1------------------3--0-1-------------3-2-1-----1-------------1-1----------------3-0-0--0--5-
E-------4-4---4--8-9--------4-4--3-1-3-4-3-1--------6---8-9-----------4-4---4---8-9---------4-4--3-1-3-4-6-----------4-
A--------------------11-------------------------------------13----------------------11-------------------------------3-
 1:32						 	    1:45
G-------------------------------------------------------------------------------------------------------------
C-0-3--------3--0-3-------------------------------------0----0-3--------3--0-3----------------------------0-3-
E-----1--1-3--------1-1-1---3--3-----------------4-3--1---3------1--1-3--------1-----3--3---------------3-----
A-------------------------1------1-3-3-3-6-5-3-1----------------------------------1-------1-3-3-3-6-5-3-------
 1:57							      		 2:09
G-----------------------------------------------------------------------------------------------------------------------------------0-
C-3-2------------------------------------------------------2-3-----------3-2----------------------------------------------------5---2-
E-----9-------9-----8-9-----9-9------------------------11------6--------------9-------9-----9-9---------------------------------4-----
A-------11-11---11------11------11-11--10-8-10-11-10-8------------5-6-13--------11-11---11------11-11--10-8-10-11-13---6-3-3--1-3---5-
  2:22/2:46						     2:34/2:58
G----------------------------------------------------------------------------------------------------------------------
C-0-3--------3--0-3----------------3---------------2----0-2--0-3--------3--0-3-----------------3-----------------0-3---
E-----1--1-3--------1-1-1---3--3---4-------------4-3--1---3------1--1-3--------1(1-1)---3--3---4---------------3-------
A-------------------------1------1-3-3-3-6-5-3-1---3------2---------------------------1------1-3-3-3-6p5h6p5-3-------x2
 3:12							3:24 (slows)
G-----1--------------------------------------------	-----------------------
C-0-3-0----0-----3---2-3----3--5--5--10---7--2-3---	-2-3--2-3--------------
E-----1----1--3------------------------------------	----6-----6-10-11------
A------------------------1--6--8--8--13--10------1-	------------------13-x3
Login or Register to remove this ad.