Ads

Main Theme (My Neighbor Totoro) Guitar Tab

Submitted: Nov 27, 2012 by JordanVS

4.941175
Average: 4.9 (17 votes)
Download | Listen
Game: My Neighbor Totoro
Composer(s): Joe Hisaishi
Style: Arrangement, Fingerstyle

AutoScroll: Slow | Medium | Fast
Main Theme                                    
The Ending Song
My Neighbor Totoro
Joe Hishaisi
JordanVS

*Capo on 5th fret




     E  E  E  E  E  E  E  E     E  E  E  E  E  E  E  E   
E||--------------------------|--------------------------|
B||-----------1-----1--------|-----------1--------------|
G||--------0-----------0-----|--------0-----------------|
D||-----2-----------------2--|-----2-----------0--2--3--|
A||--3-----------3-----------|--3-----------3-----------|
E||--------------------------|--------------------------|


  E  E  E  Q    E  E  E     E  Q    Q    E  E  E     Q    E  E  E  Q    E   
--3-----0-------3-----1--|------------------------|--1-------------1----0--|
-----------1-------------|-----3------------------|-------3--0-------------|
-----0-------------0-----|------------------------|------------------------|
-------------------------|------------------0-----|------------------------|
--3--------3-------------|------------------------|------------------------|
-------------------------|--3-------3----3-----3--|--3----------4----------|


  E  Q    E  E  E  E  E     Q.     E  E  E  E  E     Q.     E  Q.     E   
-------------------0--3--|--5------------7--3--1--|--3-------------------|
-----1-------1--3--------|------------0-----------|------------1---------|
-------------------0-----|--5---------------------|--0---------0---------|
-------------------------|--3------3--------------|----------------------|
--0-------0--------------|------------------------|------------0------0--|
-------------------------|------------------------|--0------0------------|


                                                *Segno 

  Q.     Q    Q    E     E  E  E  E  E  E  Q       E  E  E  E  Q    E  E   
--1-------------------|--1--0-------------------|-------------------------|
----------------------|--1-----3--1--0----------|--------1-----0----1-----|
--2-------------------|--2--------------2--0----|--------0-------------0--|
--0------0----0----0--|-------------------------|--------2----------------|
----------------------|-------------------------|--3--3-----3-------------|
----------------------|--3----------------------|-------------------------|


  E  Q    E  E  Q    E     E  E  E  E  Q    Q       E  Q    E  E  Q    E   
------------------------|------------------------|--0-------L-------------|
------------------------|--------1-----0----1----|-------------0----------|
-----L------------------|--------2---------------|--0---------------------|
-------------0----------|--------2---------------|-------------2----------|
--2--2----2-----2----2--|--0--0-----0------------|------------------------|
------------------------|------------------------|--3--3----3-----3----3--|


  Q    E  E  Q    Q       Q    E  E  Q    Q       Q.     E  Q    Q     
--1----0---------------|--1----0---------------|----------------------|
-------------3----1----|-------------3----1----|--1------3--3---------|
--2--------------------|--1--------------------|--2------4------------|
-----------------------|-----------------------|----------------------|
-----------------------|-----------------------|----------------------|
--1-------1--1---------|--1-------1--1---------|--3------3-------3----|


    Q.       E    Q    Q       E  E  E  E  Q    Q       Q    Q.     E  E  E   
----------------------------|------------------------|-----------------------|
--<>1------<>3--<>3---------|--------1-----0----1----|--------------3--1--0--|
----------------------------|--------0----------0----|--0----0---------------|
----------------------------|--------2---------------|--0--------------------|
----------------------------|--3--3-----3------------|--2----2------2--2-----|
----3--------3---------3----|------------------------|-----------------------|


  E  E  E  E  Q    Q       E  E  E  E  E  Q    E     E  E  E  E  E  E  E  E   
------------------------|--3----------------------|--1--1--1--1--1--0-----1--|
--1-----1-----0----1----|-----------------2-------|--3-----------------3-----|
------------------------|--------3--------0-------|--2-----------2-----------|
--------2---------------|-----0-------------------|--0-----------0-----------|
--0--0-----0------------|-----------1--0-------0--|--------------------------|
------------------------|--3----------------------|--------------------------|


  Q.     Q    E  E  E     Q    E  E  E  E  E  E     Q.     Q    E  E  E   
--L--------------0--1--|--0----0-----0--------0--|--L--------------------|
--------------3--------|--1-------------3--1-----|--2------2-------------|
--1--------------------|--0----------------------|--0------0-------------|
--0------0-------------|-------------------------|-----------------------|
-----------------------|--3-------3--------------|--0------0----1--0-----|
-----------------------|-------------------------|--------------------3--|


  Q    E  E  Q    E  E     E  E  E  E  E  E  E  E     E  Q    Q    Q    E   
------------------------|-----------------------3--|--L--------------------|
-------0-----1----3-----|--------0-----1--3--1-----|--1--1----1----1----1--|
--2------------------2--|-----2--------------------|--2--2----2----2----2--|
------------------------|--------------------------|-----------------------|
------------------------|--------------------------|-----------------------|
--1-------1-------------|--1--------1--------------|--3--3----3----3----3--|



			 *Da Coda

  E  E  Q    E  E  E  E     E  E  E  Q    E  E  E     E  Q    Q    E  E  E   
-----3--3----------0--1--|--3-----0-------3-----1--|------------------------|
--L--3--3----1--3--------|-----------1-------------|-----3------------------|
--L--4--4----------------|-----0-------------0-----|------------------------|
-------------------------|-------------------------|------------------0-----|
-------------------------|--3--------3-------------|------------------------|
--L--3--3----------------|-------------------------|--3-------3----3-----3--|


  Q    E  E  E  Q    E     E  Q    Q    E  E  E     Q    E  E  Q    Q     
--1-------------1----0--|------------------------|------------------1----|
-------3--0-------------|-----1------------------|-------------1---------|
------------------------|------------------------|-------1---------------|
------------------------|------------------------|-----------------------|
------------------------|--0-------0-------------|-----------------------|
--3----------4----------|---------------3--1--0--|--1-------1------------|


  Q    E  Q.     E  E     E  E  E  E  E  E  E  E     Q.     E  E  E  E  E   
--0----3------------0--|--1--0--1--0--1--0--------|------------------0--1--|
--0-------1------------|--------------------1--3--|------------1--3--------|
--0-------0------------|--2-----------2-----------|------------------------|
-----------------------|--0-----------0-----------|--3---------------------|
----------0------0-----|--------------------------|------------------------|
--0--------------------|--------------------------|--3------3--------3-----|


  E  E  E  Q    E  E  E     E  Q    Q    E  E  E     Q    E  E  E  Q    E   
--3-----0-------3-----1--|------------------------|--1-------------1----0--|
-----------1-------------|-----3------------------|-------3--0-------------|
-----0-------------0-----|------------------------|------------------------|
-------------------------|------------------0-----|------------------------|
--3--------3-------------|------------------------|------------------------|
-------------------------|--3-------3----3-----3--|--3----------4----------|


  E  Q    E  E  E  E  E     Q    Q    E  E  E  E     Q.     E  Q.     E   
-------------------------|-------5----3--1--0--1--|--3----------------0--|
-----1-------------------|------------------------|---------1--1---------|
-------------2--0--------|--2---------------------|------------0---------|
-------------------3--2--|--3---------3-----------|----------------------|
--0-------0--------------|------------------------|------------0---------|
-------------------------|--1---------------------|--0-------------------|


  E  E  E  E  E  E  E  E     E  E  E  E  E  E  E  E     Q    E  E  E  E  E  E   
--1--0-----1--0-----5--3--|--L-----------------------|-------------1--0-----0--|
--------1--------1-----1--|--L-----------------------|-------------------3-----|
--2--------2-----------2--|--L-----------------------|-------0--0--------------|
--3--------3--------------|--------------------------|-------------------------|
--------------------------|--------------------------|-------------------------|
-----------------------3--|--L--3--3--3--3--3--3--3--|--3----------3-----------|


                          ^      ^                                       
  E  Q    Q    Q    E     Q.     Q.     Q       E  E  E  E  E  E  E  E   
-----------------------|---------------------|--------------------------|
--1--------------------|--1------3-----------|--------1-----0-----1-----|
-----------------------|--2------4-----------|-----------------------0--|
--2--------------------|---------------------|-----2-----2-----2--------|
--3--3----3----3----3--|---------------------|--3-----------------------|
-----------------------|--3------3------3----|--------------------------|


  E  E  E  E  E  E  E  E     E  E  E  E  E  E  E  E   
--------------------------|-----------------------0--|
--------------3-----1--0--|--1-----1-----0-----1-----|
--------0-----------------|--------------------------|
-----0-----0-----0--------|-----2-----2-----2--------|
--2-----------------2-----|--0-----------------------|
--------------------------|--------------------------|


  E  E  E  E  E  E  E  E     E  E  E  E  E  E  E  E   
-----------------------0--|--1--0--------------------|
-----------0--------0-----|--------3--1--0--------0--|
--------0--------0--------|--2-----------------0-----|
-----2--------2-----------|-----------------2--------|
--------------------------|--------------------------|
--3-----------------------|--1-----------1-----------|


                                                                            *Da segno

  E  E  E  E  E  E  E  E     E  E  E  E  Q    Q       E  E  E  E  E  E  E  E   
--0-----------------------|------------------------|--------------1--------1--|
-----3--1--0-----------1--|--3--1--0---------------|--1--------1--------1-----|
--------------2-----2-----|-----------2--0---------|--------2--------2--------|
-----------------2--------|--0----------------3----|-----3--------------------|
--------------0-----------|------------------------|--------------------------|
--0-----------------------|--------------1---------|--3-----------------------|


    E  E  E  Q    E  E  E     E  Q    Q    E  E  E     Q    E  E  E  Q    E   
|---3-----0-------3-----1--|------------------------|--1-------------1----0--|
|------------1-------------|-----3------------------|-------3--0-------------|
|*-----0-------------0-----|------------------------|------------------------|
|*-------------------------|------------------0-----|------------------------|
|---3--------3-------------|------------------------|------------------------|
|--------------------------|--3-------3----3-----3--|--3----------4----------|


  E  Q    Q    E  E  E     Q    E  E  Q    Q       Q    E  Q.     E  E   
------------------------|------------------1----|--0----3------------0--|
-----1------------------|-------------1---------|--0-------1------------|
------------------------|-------1---------------|--0-------0------------|
------------------------|-----------------------|-----------------------|
--0-------0-------------|-----------------------|----------0------0-----|
---------------3--1--0--|--1-------1------------|--0--------------------|


  E  E  E  E  E  E  E  E     Q.     E  E  E  E  E     E  E  E  Q    E  E  E   
--1--0--1--0--1--0--------|------------------0--1--|--3-----0-------3-----1--|
--------------------1--3--|--L---------1--3--------|-----------1-------------|
--2-----------------------|------------------------|-----0-------------0-----|
--0--------0--0-----------|--3---------------------|-------------------------|
--------------------------|------------------------|--3--------3-------------|
--------------------------|--3------3--------3-----|-------------------------|


  E  Q    Q    E  E  E     Q    E  E  E  Q    E     E  Q    E  E  E  E  E   
------------------------|--1-------------1----0--|-------------------------|
-----3------------------|-------3--0-------------|-----1-------------------|
------------------------|------------------------|-------------2--0--------|
------------------0-----|------------------------|-------------------3--2--|
------------------------|------------------------|--0-------0--------------|
--3-------3----3-----3--|--3----------4----------|-------------------------|


  Q    Q    E  E  E  E     Q.     E  Q.     E     E  E  E  E  E  E  E  E   
-------5----3--1--0--1--|--3----------------0--|--1--0-----1--0-----5--3--|
------------------------|--3------1--1---------|--------1--------1-----1--|
--2---------------------|------------0---------|--2--------2-----------2--|
--3---------3-----------|----------------------|--3--------3--------------|
------------------------|------------0---------|--------------------------|
--1---------------------|--0-------------------|-----------------------3--|



 
                                                     1. 
                                        ^
  E  E  E  E  E  E  E  E     Q    E  E  E  E  E  E     E  Q    Q    Q    E   
--L-----------------------|-------------1--0-----0--|-----------------------|
--L-----------------------|-------------0-----3-----|--1--------------------|
--L-----------------------|-------0--0--0-----------|-----------------------|
--------------------------|-------------------------|--2--------------------|
--------------------------|-------------------------|--3--3----3----3----3--|
--L--3--3--3--3--3--3--3--|--3----------------------|-----------------------|



                         2.

  E  Q    Q    Q    E       E  E  E  Q    Q    E     E  Q    Q    E  E  E   
------------------------||--3-----0-------3----1--|------------------------|
--1---------------------||-----------1------------|-----3------------------|
--2--------------------*||-----0------------------|------------------------|
--3--------------------*||------------------------|------------------0-----|
------------------------||--3--------3------------|------------------------|
--3--3----3----3----3---||------------------------|--3-------3----3-----3--|


  Q    E  E  E  Q    E     E  Q    Q    Q.        E  E  E  Q    Q    E   
--1-------------1----0--|----------------------|--3-----0-------3----1--|
-------3--0-------------|-----1----------------|-----------1------------|
------------------------|----------------------|-----0------------------|
------------------------|----------------------|------------------------|
------------------------|--0-------0----0------|--3--------3------------|
--3----------4----------|----------------------|------------------------|


  E  Q    Q    E  E  E     Q    E  E  E  Q    E     E  Q    E  E  E  E  E   
------------------------|--1-------------1----0--|-------------------------|
-----3------------------|-------3--0-------------|-----1-------------------|
------------------------|------------------------|-------------2--0--------|
------------------0-----|------------------------|-------------------3--2--|
------------------------|------------------------|--0-------0--------------|
--3-------3----3-----3--|--3----------4----------|-------------------------|


  Q    Q    E  E  E  E     Q.     E  Q.     E     E  E  E  E  E  E  Q     
-------5----3--1--0--1--|--3----------------0--|--1--0-----1--0-----5----|
------------------------|--3------1--1---------|--------1--------1-------|
--2---------------------|------------0---------|--2--------2-------------|
--3---------3-----------|----------------------|--3--------3-------------|
------------------------|------------0---------|-------------------------|
--1---------------------|--0-------------------|-------------------------|


                                  ^              ^                  
  H        H           Q    E  E  E  E  E  E     W                  
--3-----------------|-------------1--0-----0--|-------------------||
--1-----------------|-------------0-----3-----|--1----------------||
--2-----------------|-------0--0--0-----------|--0----------------||
--------------------|-------------------------|--2----------------||
--------------------|-------------------------|--3----------------||
--3--------3--------|--3----------------------|-------------------||




Duration Legend
---------------
W - whole
H - half
Q - quarter
E - 8th
S - 16th
. - note dotted
|-n-|  - n-tuplets


Tablature Legend
----------------
L - tied note
^ - brush up
v - brush down
Login or Register to remove this ad.

3 comments on Main Theme

Wonderful

Wonderful *w* ! Excellent Job !

Really a nice alternative in

5

Really a nice alternative in Std Tuning (the official tab is in Drop D)

T__T

5

Such a good tab it brought tears to my eyes when I played it, and I'm not even a very good guitarist!