A Lost Child (My Neighbor Totoro) Guitar Tab

Submitted: Jan 12, 2011 by diralark

5
Average: 5 (5 votes)
Download | Listen
Game: My Neighbor Totoro
Composer(s): Joe Hisaishi
Style: Arrangement, Fingerstyle

This song is also called Maigo

AutoScroll: Slow | Medium | Fast
            Maigo (A Lost Child)        [ from My Neighbor Totoro (anime) ]

Music by Joe Hisaishi >> unidentified Orchestral arranger >> guitar solo tab by Diralark

Video : http://www.youtube.com/watch?v=YGyN-rHD228


Guitar, Tempo = 88

      E  E  E  E  E  E  E  E     E  E  E  E  E  Q.          Q    Q       E  E  E  Q    Q    E   
E||---------0--3--2-----------|-------------------------||-------0----|------------------------|
B||------------------3-----0--|--1----------------------||------------|--0---------------------|
G||*-----2--------------2-----|-----2--------0---------*||--2---------|----------------0-------|
D||*--------------------------|--------2--4-----2------*||------------|---------------------0--|
A||---------------------------|-------------------------||------------|--0-----2--3------------|
E||---------------------------|-------------------------||------------|-----0------------------|


  E  E  E  Q.     E  E       E  E  E  E  Q    E  E     E  E  E  E  H         
--0---------------------||-----------------------0--|--0--------------------|
---------------------0--||---1--------0-------1-----|-----------0--0--------|
------------------2-----||*--------------2----------|-----------------------|
------------------------||*--------2----------------|--------0--2-----------|
--0-----2--3------------||---0--3-------------------|-----2-----------------|
-----0------------------||--------------------------|--3--------------------|


  E  E  E  E  E  E  E  E     E  E  E  Q.     Q       E  E  Q    E  E  E  E   
--------------------------|-----------------------|-------------------------|
--------1-----0-----------|-----------0------1----|-------------------------|
--2-----------------0-----|--------0--------------|--------2----0-----------|
-----------2--------0--2--|-----2-----------------|--0-------------3--2--0--|
-----0--3--------2--------|--3---------------3----|-----0--3----2-----------|
--1-----------3-----------|-----------------------|-------------3-----------|


  E  E  E  E  Q    E  E     Q    E  E  E  Q    E     E  E  Q    E  E  E  E   
-------------------------|------------------------|-------------------------|
--------0--1-------1--1--|--1----------0--1----3--|----------------------0--|
-------------------------|-------2----------------|--0----------------2-----|
--2-----0----------------|--0-------0-------------|--------0----2-----------|
-----2--------0----------|------------------------|-----2-------------------|
--0----------------3-----|--2---------------------|--3----------0--4--------|


  E  E  E  E  Q    Q       E  E  E  E  H           E  E  E  E  E  E  E  E   
-------------------0----|--0--------------------|--------------------------|
--0--------0------------|-----------0--0--------|--------1-----0-----------|
--2-----------2---------|--0--------------------|--2-----------0-----0-----|
--------2---------------|--------0--2-----------|--3--------2-----------2--|
--0--3------------------|-----2-----------------|-----0--3--------2--------|
------------------------|--3--------------------|--1-----------3-----------|


  E  E  E  Q.      Q        E  E  Q    E  E  E  E     E  E  E  E  Q    E  E   
-------------------------|-------------------------|-------------------------|
-----------0-------1-----|-------------------------|--------3--1-------1--3--|
--------0----------------|--------2----0-----------|--------------2----------|
-----2-------------------|--0-------------3--2--0--|--2----------------------|
--3---------------(3)----|-----0--3----2-----------|-----2--------0----------|
-------------------------|-------------------------|--0----------------3-----|


  Q    E  E  E  Q    E     Q    Q    Q    E  E     E  E  E  E  E  E  E  E   
--0-------0-------------|-----------------------|--0-----------------0--3--|
-------3-----3--0-------|-----------------1--3--|-----------3--1-----------|
---------------------2--|--2--------------------|--------------------------|
--3----------2----------|-----------------------|--------------------------|
------------------------|--0---------0----------|--3--3--------3--3--------|
--1----------0----------|-------0---------------|--------3-----------------|


  E  E  E  E  E  E  E  E     E  E  E  E  E  E  E  E     E  E  E  E  E  E  E  E   
--3-----------------------|--------------------------|--------------------------|
-----------3--3-----------|--1-----1--0--------------|--0-----1-----3-----1--3--|
--0--0-----0--------------|--------------2-----0--2--|--------------------------|
--------------------------|--------------------------|--------------------------|
--------2-----------2-----|--0--0-----0-----0--------|--------0--0--2--2--------|
-----------------3-----3--|--------------------------|--3--3--------------------|


  E  E  E  E  E  E  E  E     E  E  E  E  E  E  E  E     E  E  E  E  E  E  E  E   
--0-----------------0--3--|--3--3--3--------------0--|--1-----0--------------1--|
-----------3--1-----------|-----------3--3-----3-----|--------------3-----1-----|
--------------------------|--------------------------|--------------------------|
--------------------------|--------------------------|--------------------------|
--3--3--------3--3--------|-----------------2--------|--0--0-----0-----0--------|
--------3-----------------|--3--------3--------------|--------------------------|


                                                                          1. _____________
                                                   ^                                            
  E  E  E  E  Q    E  E     Q    Q    Q    Q       Q.     E  E  E  E  E     Q.     H        E   
--------0--0-------------|----------------------|------------------------|---------------------|
--------------3-------3--|-----------------0----|---------------1--0--1--|--1------------------|
-------------------5-----|------------0---------|--0------0--2-----------|---------------------|
-------------------------|-------0--------------|--0---------------------|---------------------|
-------------------------|-----------------2----|--2---------------------|--3------3-----------|
--4--4-----4-------------|--3-------------------|--3---------------------|---------------------|


                           ^                        ^                        ^                      
  Q.     E  E  E  E  E     Q    E  Q    E  E  E     Q    E  Q    E  E  E     Q    E  Q    E  E  E   
------------------------|--0------------0--1--3--|------------------------|--0------------0--1--3--|
--1------------0--1--3--|------------------------|--1---------------------|------------------------|
------------0-----------|------------------------|------------------------|------------------------|
------------------------|--3----3----------------|--2----2-------2-----2--|--3----3----------------|
--3------3--------------|--0-------0-------0-----|------------------------|--0-------0-------0-----|
------------------------|------------------------|--3-------3-------3-----|------------------------|


                                    |----3----|                   |----3----|     
  Q.     Q    E  E  E     Q.     E  Q    Q    Q       Q.      E   Q    Q    Q     
--------------8--8--7--|--5---------5----3----5----|--0--------------------------|
--1--------------------|---------------------------|--------------3---------3----|
-----------------------|---------------------------|-------------------2---------|
--2--------------------|--3------3-----------------|-----------------------------|
---------7-------------|---------------------------|--3-------3------------------|
--3--------------------|---------------------------|---------(0)-----------------|


                                                 2. ________________

  Q    Q    Q    E  E     H        Q    E  E       Q.     E  Q.     E     Q    Q    Q    E  E   
--3-----------------5--|--7--------------------||----------------------|-----------------------|
-----------------------|-------------------0---||--1-------------------|-----------------1--3--|
------------0----------|--0--------1----2-----*||----------------------|-----------------0-----|
-------0---------0-----|-----------2----------*||----------------------|------------0----------|
--2--------------------|-----------2-----------||--3------3--3---------|-------2---------------|
-----------------------|-----------------------||----------------------|--3--------------3-----|


  III                -]                                                                           
  Q    E  E  Q    E  E     Q    E  E  Q    Q       Q    E  E  Q    E  E     Q    Q    Q    E  E   
---------------------3--|--3--------------------|------------------------|-----------------------|
--5-------3-------5-----|----------3--3---------|--1-------0-------------|--0----1----3----1--3--|
-------------5----------|-----------------------|-------------2----0--2--|-----------------------|
------------------------|-----------------------|------------------------|------------0----------|
--3-------3--3----------|--2-------2------------|--0-------0-------------|--2----0---------------|
-------3----------------|-------3----------3----|-------0----------------|--3---------3----------|


  Q    E  E  Q    E  E     E  E  E  E  Q    E  E     Q    E  E  Q    E  E   
--0---------------0--3--|--3--3--3-------------0--|--1----0----------------|
----------3--1----------|-----------3--3----3-----|-------------3----1--1--|
------------------------|-------------------------|------------------------|
------------------------|-------------------------|------------------------|
--3----------3----------|--2--------2-------------|--0-------0-------------|
-------3----------------|--------3----------------|-------0----------------|


  Q    E  E  Q    E  E     Q    Q    Q    Q       Q.     E  E  E  E  E     E  E  E  E  E  E  E  E   
--1----0----------------|----------------------|------------------------|--------0--3--2-----------|
-------------3-------3--|-----------------0----|---------------1--0--1--|--1--------------3-----0--|
------------------5-----|------------0---------|--0------0--2-----------|--2--2--------------2-----|
-------------0----------|--0----0--------------|--0---------------------|--2-----------------------|
------------------------|-----------------2----|--2---------------------|--3-----------------------|
--4-------4-------------|--3---------3---------|------------------------|--------------------------|


  E  E  E  E  E  E  E  E     E  E  E  E  E  E  E  E     E  E  E  E  E  E  E  E   
--------------------------|--------0--3--2-----------|--------------------------|
--1-----------------------|--1--------------3-----0--|--1--------------------0--|
-----2--------0-----------|--2--2--------------2-----|-----2--------0-----2-----|
--------2--4-----2--------|--0-----------------------|--------2--4-----2--------|
--------------------3--2--|--------------------------|--------------------------|
--------------------------|--------------------------|--------------------------|


  E  E  E  E  Q    Q       E  E  E  S  S  Q.     E     E  E  E  E  E  E  Q     
-------------------0----|--0------------------------|-------------------------|
--1--------0------------|-----------3p-1p-0---------|--------1-----0--1--3----|
--2-----------2---------|--0------------------------|--2-----------0----------|
--------2---------------|--------0--2---------------|--3--------2--------0----|
--0--3------------------|-----2---------------------|-----0--3--------2-------|
------------------------|--3------------------------|--1-----------3----------|


                                     VII              --        -]              
  E  E  E  Q.     Q       E  E  Q    E    E  E  E     E  E   E  E  Q    E   E   
--0--------------------|--------5------------------|--------10--8-------8--10--|
-----------------------|--3----------8-------------|---------------------------|
-----------------------|-----------------10--9--7--|--9-----------------0------|
-----------------------|--0------------------------|---------------------------|
--3--------2------3----|-----0--3------------------|--7------------0-----------|
-----0--3--------------|-------------7-------------|-----7---------------------|


   Q     E   E   E   Q    E      Q.     E  Q    E  E     H.           Q      
--12----10--12--10-----------|--10--------------9--7--|--9-----------------||
--------------------12-------|------------------------|--------------------||
-----------------------------|------------------------|--------------------||
-----------------------------|------------------------|--------------------||
---8-------------------------|---0------0--0----------|--0-----------------||
-----------------0-----------|------------------0-----|--------------------||


Legend
---------------
H - half
Q - quarter
E - 8th
. - note dotted
|-n-|  - n-tuplets
L - tied note
Login or Register to remove this ad.

2 comments on A Lost Child

This is truly good.

5

One of the most soothing song I've ever heard. The arrangement was superb!

Thank you

I love also songs sang by Azumi Inoue, what a great singer. Ho damn my video link is broken :/ so here s a new one :D http://www.youtube.com/watch?v=zsNsA7odV0g&feature=related
ps : an great offical tab exist also for some $$