Ads

The Huge Tree in the Tsukamori Forest (My Neighbor Totoro) Guitar Tab

Submitted: Oct 24, 2012 by JordanVS

5
Average: 5 (6 votes)
Download | Listen
Game: My Neighbor Totoro
Composer(s): Joe Hisaishi
Style: Arrangement, Artificial harmonics, Fingerstyle, Natural harmonics

This song is also called Tsukamori no Taiju

AutoScroll: Slow | Medium | Fast
The Huge Tree in the Tsukamori Forest                 
My Neighbor Totoro
Tsukamori no Taiju-Tonari no Totoro
Joe Hisaishi
JordanVS



*Capo on the 1st fret



                 NH     NH         NH             NH    
     H           Q      Q          H.             Q     
E||--------------------------|--<>12-------------------|
B||-----------<>12-----------|------------------<>7----|
G||-------------------<>7----|-------------------------|
D||--------------------------|-------------------------|
A||--------------------------|-------------------------|
E||--------------------------|-------------------------|


    NH          NH     NH         NH             T     
    H           Q      Q          H.             Q     
----------------------------|--<>12------------<>5----|
-------------<>12-----------|-------------------------|
--<>7----------------<>7----|-------------------------|
----------------------------|-------------------------|
----------------------------|-------------------------|
----------------------------|-------------------------|


    T                            T                         
    H        S S S S E  S S      H        S S S  S E  S S  
--<>2-----------------------|--<>0------------------------|
---------------0-----0------|-----------------------------|
-----------------2------2---|---------------2------2------|
-------------------4------4-|-----------------2p-0----2-0-|
----------------------------|----0--------0---------------|
----3--------3--------------|-----------------------------|


                                            v                 
  H        Q    Q       W                   W                 
---------------------|-------------------|-------------------|
--3--------2---------|--0----------------|--0----------------|
--0--------2----2----|--0----------------|--2----------------|
--2--------4---------|--0----------------|--4----------------|
---------------------|-------------------|--0----------------|
--0--------2---------|--3----------------|-------------------|


  E  E  E  E  E  E  E  E     E  E  E  E  E  E  E  E   
--------------------------|--------------------------|
--------0-----2-----3-----|--2-----------------------|
-----------0-----0-----0--|--------2-----2-----2-----|
-----0--------------------|-----2-----2-----2-----2--|
--------------------------|--0-----------------0-----|
--3-----------3-----------|--------------------------|


  E  E  E  E  E  E  E  E     E  E  E  E  E  E  E  E   
--------------------------|--0-----------------------|
--------0-----2-----3-----|--------------0-----------|
-----------0-----0-----0--|-----------0-----0--------|
-----2--------------------|--------2-----------2-----|
--------------------------|-----2-----------------2--|
--3-----------3-----------|--0-----------------------|


  E  E  E  E  E  E  E  E     S S S S E  S S S S S S E  S S  
--2-----------------------|--------------------------------|
--------------2-----------|----0-----0--------0-----0------|
-----------4-----4--------|------2------2-------2------2---|
--------4-----------4-----|--------4------4-------4------4-|
-----4-----------------4--|--------------------------------|
--2-----------------------|--3--------------3--------------|


  S S S  S E  S  S S S S  S E  S  S    S S S S E  S S S S S S E  S S  
------------------------------------|--------------------------------|
------------------------------------|----0-----0--------0-----0------|
----2------2---------2------2-------|------2------2-------2------2---|
------2p-0----2p-0-----2p-0----2p-0-|--------4------4-------4------4-|
--0----------------0----------------|--------------------------------|
------------------------------------|--3-------3------3-------3------|


  S S S  S E  S  S S S S  S E  S  S  
------------------------------------|
------------------------------------|
----2------2---------2------2-------|
------2p-0----2p-0-----2p-0----2p-0-|
--0--------0-------0--------0-------|
------------------------------------|


   S  S  S  S  E   S  S  S  S  S  S  E   S  S  
----------------------------------------------|
-----12-10----12--10-------12-10----12--10----|
-----------11--------11----------11--------11-|
----------------------------------------------|
--10--------------------10--------------------|
----------------------------------------------|

                             *Segno
                            
  S S S S E  S S Q    E  E       E  E  E  E  E  E  E  E   
----5-----5------5----------||---0-----0--2--------------|
------5------5---5----0--3--||---0-----------3-----0--3--|
--------7------7-4----------||*-----------0-----------0--|
--7-------------------------||*--------0-----------0-----|
-----------------0----------||------2-----------2--------|
----------------------------||---3-----------3-----------|



                          1.
  E  E  E  E  E  E  E  E     E  E  E   E  E  E  E  E   
--0-----0--5--2-----2--5--|--7--7--7--10--9--7--5--3--|
--------------------------|---------------------------|
--------2-----------2-----|------------0-----0--------|
-----0-----2-----------2--|---------------------2-----|
-----------------5--------|--------7---------------2--|
--2-----------2-----------|--0--7---------0-----------|



                                                 *Da coda
                            2.
  E  E  E  E  E  E  E  E       E  E  E   E  E  E  E  E   
--2-----0-----2------------||--7--7--7--10--9--7--------|
-----------0-----------3---||---------------------7--0--|
--------------3-----4-----*||------------0-----6--------|
--------4--------4--------*||---------------------------|
-----4---------------------||--------7------9-----------|
--2-----------2------------||--0--7---------------------|


  E  E  E  Q.     E  E     E  E  E  E  E  E  E  E   
------------------------|-----3--3-----3-----------|
--3---------------3--2--|--1--------1-----------1--|
--------2--4------------|--------0-----------2-----|
-----4------------------|-----2-----------2--------|
--2---------------------|--0-----------0-----------|
------------------------|--------------------------|


  E  E  E  E  E  E  E  E     E  E  E  E  E  E  E  E   
-----------3--3-----2--0--|--2--3--2--0--------------|
-----1--1--1-----------1--|--------------3-----------|
--------0-----------2-----|-----2-----------2--------|
-----2-----------2--------|--------4-----------4-----|
--0-----------0-----------|--2-----------2--------2--|
--------------------------|--------------------------|


  E  E  E  E  Q    Q       E  E  E  E  E  E  E  E   
-----------2------------|-----3--3-----3-----------|
--------3-----3----2----|--1--------1-----------1--|
-----4------------------|--------0-----------2-----|
--4---------------------|-----2-----------2--------|
--2---------------------|--0-----------0-----------|
------------------------|--------------------------|


  E  E  E  E  E  E  E  E     E  E  E  E  E  E  E  E   
-----------3--3-----2--0--|--2--3--5-----------------|
-----1--1--1-----------1--|-----------3-----0--------|
--------0-----------2-----|-----2-----------------2--|
-----2-----------2--------|--0-----0-----0-----0-----|
--0-----------0-----------|--------------------------|
--------------------------|--------------------------|


         D.S. al Coda  *Coda
                                                  ^                  
  H        Q    E  E     E  E  E  Q.     E  E     W                  
----------------------|------------------------|--0----------------||
--0-------------0--3--|--3---------------0--3--|--3----------------||
-----------2-------2--|--------2--4------------|--4----------------||
----------------4-----|-----4------------------|--5----------------||
--0-------------------|--2---------------------|--0----------------||
----------------------|------------------------|-------------------||




Duration Legend
---------------
W - whole
H - half
Q - quarter
E - 8th
S - 16th
. - note dotted


Tablature Legend
----------------
L - tied note
NH - natural harmonic
AH - artificial harmonic
h - hammer on
p - pull off
T - tapping
^ - brush up
v - brush down
Login or Register to remove this ad.

1 comment on The Huge Tree in the Tsukamori Forest

Great Job

5

Keep it up man. This is a good tab. Loved this movie haha playing this song brought back some memories!!!