Ads

Catbus (My Neighbor Totoro) Guitar Tab

Submitted: Dec 02, 2012 by JordanVS

5
Average: 5 (2 votes)
Download | Listen
Game: My Neighbor Totoro
Composer(s): Joe Hisaishi
Style: Arrangement, Fingerstyle

This song is also called Nekobasu

AutoScroll: Slow | Medium | Fast
Catbus                                      
Nekobasu
My Neighbor Totoro
Joe Hisaishi
JordanVS





     E  E  E  E  E  E  E  E     E  E  E  E  E  E   E  E   
E||--------------------------|---------------------------|
B||--2--2--0--------------0--|--2--2--0------------------|
G||--------------2-----------|--------------2--2---------|
D||-----------4--1--2--1--2--|-----------4--1--2S--4--2--|
A||--0--0--4-----------------|--0--0--4------------------|
E||--------------------------|---------------------------|


  E  E  E  E  E   E  E   E     E  E  E  E  E  E  E  E   
----------------------------|--------------------------|
-----0----------------------|--3-----2--3--------------|
--1-------------------------|--4-----------------------|
----------------------------|--------------------------|
-----------2--1h--2--1h--2--|-----------2--1--2--1--2--|
--0--0--4-------------------|--0--0--4-----------------|


  E  E  E  E  E  E  E  E     E  E  E  E  E  E  E  E   
-----------------0-----2--|--L-----2--2--0-----------|
--3--3--3--3--3-----------|-----------------3-----2--|
--------------------------|-----------------------2--|
--------------------------|--------------------------|
-----------2--1--2--1--2--|-----------2--1--2--1--2--|
--0--0--4-----------------|--0--0--4-----------------|


  E  E  E  E  E   E  E   E     E  E  E  E  E   E  E   E   
----------------------------|----------------------------|
--L-------------------------|----------------------------|
--L-------------------------|----------------------------|
-----------2--1h--2--1h--2--|-----------2--1h--2--1h--2--|
--0--0--4-------------------|--0--0--4-------------------|
----------------------------|----------------------------|


  E  E  E  E  E  E  E  E     E  E  E  E  E  E   E  E   
--------------------------|---------------------------|
--2--2--0--------------0--|--2--2--0------------------|
--------------2-----------|--------------2--2---------|
-----------4--1--2--1--2--|-----------4--1--2S--4--2--|
--0--0--4-----------------|--0--0--4------------------|
--------------------------|---------------------------|


  E  E  E  E  E   E  E   E     E  E  E  E  E  E  E  E   
----------------------------|--------------------------|
-----0----------------------|--3-----2--3--------------|
--1-------------------------|--4-----------------------|
-----------2--1h--2--1h--2--|--------------------------|
--0--0--4-------------------|-----------2--1--2--1--2--|
----------------------------|--0--0--4-----------------|


  E  E  E  E  E  E  E  E     E  E  E  E  E  E  E  E   
-----------------0-----2--|--L-----2--2--0-----------|
--3--3--3--3--3-----------|-----------------3-----2--|
--------------------------|-----------------------2--|
--------------------------|--------------------------|
-----------2--1--2--1--2--|-----------2--1--2--1--2--|
--0--0--4-----------------|--0--0--4-----------------|


  E  E  E  E  E   E  E   E     E  E  E  E  E  E  E  E   
----------------------------|--------------------------|
--L-------------------------|--2--2--0--0--------------|
--L-------------------------|--2--2--0--0--2--2--0--0--|
-----------2--1h--2--1h--2--|--------------4--4--2--2--|
--0--0--4-------------------|--0-----0-----------------|
----------------------------|--------------2-----0-----|


  E  E  E  E  E  E  E  E     E  E  E  E  Q    Q       E  E  E  E  E  E  E  E   
--------------------------|------------------------|--------------------------|
--------0-----1--0-----1--|--L--1--0---------------|--------0-----1--0-----1--|
-----2-----2--------2-----|-----------2------------|-----2-----2--------2-----|
--4-----------0-----------|--0-----0---------------|--4-----------0-----------|
--5-----------------------|--------------0----2----|--5-----------------------|
--------------------------|------------------------|--------------------------|


  E  E  E  E  Q    Q       E  E  E  E  E  E  E  E     E  E  E  E  E  E  E  E   
------------------------|--7--7--L--7--L--7--L--7--|--------------------------|
--L--1--0---------------|--------------------------|--0--0--L--0--L--0--L--0--|
-----------2------------|--------------------------|--------------------------|
--0-----0---------------|--------6-----4-----0-----|--------6-----4-----0-----|
--------------0----2----|--------------------------|--------------------------|
------------------------|--0-----------------------|--0-----------------------|


  Q    E  E  E  Q    E     E  E  E  E  E  E  E  E     E  E  E  E  Q    E  E   
--0----0--0-------------|--------------------------|-------------------------|
--0----------3--0-------|--------------------------|--2--2--0-------------0--|
--2------------------2--|--L-----------------2--3--|--------------2----------|
--2----------2--2----2--|--L--------------2--------|-----------4-------------|
------------------------|--------0--2--4-----------|--0-----4----------4-----|
------------------------|-----0--------------------|-------------------------|


  E  E  E  E  E  E  Q       E  E  H        Q       Q    H        Q     
-------------------------|----------------------|-------0--------0----|
--2--2--0----------------|-----0--L-------------|---------------------|
--------------2--2-------|--1-------------------|-------1--------1----|
-----------4--------4----|----------------------|--2------------------|
--0-----4-----------4----|----------------------|---------------------|
-------------------------|--0-----4--------4----|---------------------|


  E  E  E  E  E  E  E  E     Q    E  E  E  E  E  E     Q    H        E   E   
--------------------------|-------------------------|-----------------------|
--0--0--0--0--0--2-----3--|-------3--3--2--0--------|-----------------------|
--------------------------|----------------------2--|--L--------------------|
--------------------------|-------------------------|-------2--------1h--2--|
--------------------------|--0----4-----------4-----|-------4---------------|
--0-----4-----------4-----|-------------------------|--5--------------------|


  E  E  E  E  E   E  E   E       E  E  E  E  E  E  E  E   
----------------------------||---------------------------|
----------------------------||---------0-----1--0-----1--|
----------------------------||*-----2-----2--------2-----|
-----------2--1h--2--1h--2--||*--4-----------0-----------|
--0--0--4-------------------||---5-----------------------|
----------------------------||---------------------------|


  E  E  E  E  Q    Q       E  E  E  E  E  E  E  E     E  E  E  E  Q    Q     
------------------------|--------------------------|------------------------|
--L--1--0---------------|--------0-----1--0-----1--|--L--1--0---------------|
-----------2------------|-----2-----2--------2-----|-----------2------------|
--0-----0---------------|--4-----------0-----------|--0-----0---------------|
--------------0----2----|--5-----------------------|--------------0----2----|
------------------------|--------------------------|------------------------|


  E  E  E  E  E  E  E  E     E  E  E  E  E  E  E  E     Q    E  E  E  Q    E   
--7--7--L--7--L--7--L--7--|--------------------------|--0----0--0-------------|
--------------------------|--0--0--L--0--L--0--L--0--|--0----------3--0-------|
--------------------------|--------------------------|--2------------------2--|
--------6-----4-----0-----|--------6-----4-----0-----|--2----------2--2----2--|
--------------------------|--------------------------|------------------------|
--0-----------------------|--0-----------------------|------------------------|


  E  E  E  E  E  E  E  E     E  Q    E  Q    E  E     E  E  E  E   
--------------------------|--2-------2-------2-----|-----7--7--7--|
--------------------------|--3-------3-------3-----|-----9--9--9--|
--L-----------------2--3--|--4-------4-------4-----|-----9--9--9--|
--L--------------2--------|------------------------|--------------|
--------0--2--4-----------|--2-------2-------2-----|--------------|
-----0--------------------|------------------------|--------------|


  E  E  E  E  E  E  E  E     E  E  E  E  E  E  E  E   
--0--0--------0--L--------|--------------------------|
--------2-----------2-----|--0--0--------------------|
-----------2-----------2--|--------1-----------------|
--------------------------|-----------2-----L--------|
--0--0--0--0--0--0--0--0--|--------------------------|
--------------------------|--0--0--0--0--0--0--0--0--|


  E  E  E  E  E  E  E  E     E  E  E  E  E   E  E   E   
-----------0--2--0--------|----------------------------|
--3--3--3--2--3--2--3--2--|--L-------------------------|
--4--4--4-----------4--2--|--L-------------------------|
--------------------------|-----------2--1h--2--1h--2--|
--------------------------|--0--0--4-------------------|
--0--0--0--0--0--0--0--0--|----------------------------|


  E  E  E  E  E  E  E  E     E  E  E  E  E  E  E  E   
--0--0--------0--L--------|--2--2--0-----------------|
--2-----2-----2--L--2-----|--3--3--2--3--L--------2--|
--2--------2--2--L-----2--|-----------4--L-----------|
--------------------------|--0--0--0--0--0--0--0--0--|
--0--0--0--0--0--0--0--0--|--------------------------|
--------------------------|--------------------------|


                          1.

  E  E  E  E  E  E  E  E     E  E  E  E  E  E  E  E   
-----0--0--2--------------|--------------------------|
--L-----------1--0--------|--------------------------|
--------------------2-----|--2--L--------------------|
--------------------------|--1--2--2--1--2--2--1--2--|
--------------------------|--------------------------|
--0--0--0--0--0--0--0--0--|--------------------------|


  E  E  E  E  E  E  E  E     E  E  E  E  E  E  E  E   
--------------------------|--------------------------|
--------------------------|--2--2--0--------------0--|
--------------------------|--------------2-----------|
--1--2--2--1--2--2--1--2--|-----------4--1--2--1--2--|
--------------------------|--0--0--4-----------------|
--------------------------|--------------------------|


  E  E  E  E  E  E   E  E     E  E  E  E  E   E  E   E   
---------------------------|----------------------------|
--2--2--0------------------|-----0----------------------|
--------------2--2---------|--1-------------------------|
-----------4--1--2S--4--2--|-----------2--1h--2--1h--2--|
--0--0--4------------------|--0--0--4-------------------|
---------------------------|----------------------------|


  E  E  E  E  E  E  E  E     E  E  E  E  E  E  E  E   
--------------------------|-----------------0-----2--|
--3-----2--3--------------|--3--3--3--3--3-----------|
--4-----------------------|--------------------------|
--------------------------|--------------------------|
-----------2--1--2--1--2--|-----------2--1--2--1--2--|
--0--0--4-----------------|--0--0--4-----------------|


  E  E  E  E  E  E  E  E     E  E  E  E  E   E  E   E   
--L-----2--2--0-----------|----------------------------|
-----------------3-----2--|--L-------------------------|
-----------------------2--|--L-------------------------|
--------------------------|-----------2--1h--2--1h--2--|
-----------2--1--2--1--2--|--0--0--4-------------------|
--0--0--4-----------------|----------------------------|

                            2.
                               ^                  
  E  E  E  E  E  E  E  E       W                  
---------------------------||-------------------||
--2--2--0--0---------------||-------------------||
--2--2--0--0--2--2--0--0--*||--2----------------||
--------------4--4--2--2--*||--2----------------||
--0-----0------------------||--0----------------||
--------------2-----0------||-------------------||




Duration Legend
---------------
W - whole
H - half
Q - quarter
E - 8th
S - 16th
. - note dotted
|-n-|  - n-tuplets


Tablature Legend
----------------
L - tied note
h - hammer on
p - pull off
^ - brush up
v - brush down
Login or Register to remove this ad.