Ads

Title Screen (Mount & Blade: With Fire & Sword) Guitar Tab

Submitted: Jan 22, 2018 by tomka2

0
Download | Listen
Game: Mount & Blade: With Fire & Sword
Composer(s): Pyotr Salnikov, Vadim Gankin, Moscow Ethnographic Theatre
Style: Fingerstyle, Transcription

AutoScroll: Slow | Medium | Fast
Mount and blade with fire and swords
Titlescreen
Tab creator: Tom Julian
Classical guitar (spanish) sounds best.
Capo= None
Tuning= Drop D (DADGBe)
Song on youtube: https://www.youtube.com/watch?v=i0iuQKSnMHs

Some chords need to be played as seperate notes instead of chords. Listen to the song and find out
what you like.


[Part I]

e|----------------------------------------------------1----------------------|
B|--------3--3--3--3----4--3---4--1--3-----3--3--3---------------------------|
G|--------3--2--3--2----3--2---3-----2-----3--2--3-------2b------------------|
D|--------5--0--5-------5--3-0-1-----0-----5--0--5--0------------------------|
A|---------------------------------------------------------------------------|
D|--------5--------------------------------5---------------------------------|

e|--------3-------------------5----------------------------------------------|
B|--------3--6-5-3-5-3-------------------------------------------------------|
B|--------3------------5-4------5--------------------------------------------|
D|--------------------------3------------------------------------------------|
A|-----------------3---------------------------------------------------------|
D|--------5------------------------------------------------------------------|

[Part II]

e|--------1-----3--8-----6---------5--3--1------------1--3---------------3---|
B|--------3-----3-----7--8------1--3--3--1--3--4p3h4--1--3--1-------7--------|
G|--------------3-----------2-3----2--2-----3--------------------5--------3--|
D|---------------------------------0--0--3------------0--1-------------------|
A|--------1--0--------------0-1-3-----------1--3---------------5-------------|
D|--------------5--7--4--5----------------------------------------------5----|

[Part III]

e|-----------------------------------5------------5/7~~~~--------------------|
B|--------4--3---4--1--3----3--3---3-----------------------------------------|
G|--------3--2---3-----2----3--2--------------7~~~---------------------------|
D|--------5--3-0-1-----0----5-----0------------------------------------------|
A|---------------------------------------------------------------------------|
D|--------------------------3-------------5----------------------------------|

e|-----------3--------------------------------------------3-----5------------|
B|-----------0---------------------7------1-3-------1-----------7------------|
G|--------------6-4-6---4-6-------------3---2-2-2-----3-2----5---------------|
D|--------2-----------7---------7-------1---0-----0-0-0-0-1------------------|
A|---------------------------5----------------------------------5------------|
D|---------------------------------------------------------------------------|

e|--------------3~~~----------------3--------3--2---3------------------------|
B|--------------------------4--3---------------------------------------------|
G|--3-5-7-5-3-2----3--------3--2-------3--2----------------------------------|
D|---------------5----------5------------------------------------------------|
A|--1-3-5-3-1-0-------------------0-1-----3--1--0----------------------------|
D|--------------5~~~-------------------5------------5------------------------|

[Part IV]

e|---------------------------------------------------------------------------|
B|--------/11-10----11-10-8-7-8----------------------------------------------|
G|---------------12---------------12-10-7-8-10-7-8-7-5p4h5~~~~--4-5----------|
D|---------------------------------------------------------------------------|
A|---------------------------------------------------------------------------|
D|---------------------------------------------------------------------------|

************************************


| h   Hammer-on
| p   Pull-off
| b   Bend


************************************
Login or Register to remove this ad.