Vaegir Town (Mount & Blade: Warband) Guitar Tab

Submitted: Apr 12, 2019 by Coolbreeze

5
Average: 5 (1 vote)
Download | Listen
Game: Mount & Blade: Warband
Composer(s): Jesse Hopkins
Style: Arrangement, Fingerstyle

AutoScroll: Slow | Medium | Fast
			Vaegir Town 
		~Mount & Blade : Warband~

Composed by Jesse Hopkins
Tabbed by Coolbreeze
Tempo = 100
TS = 3/8

Capo 5
        ^                                                                                     
     E  Q       Q.        E  E  E     Q    E     E.  S E     E  E  E     E  E  E     Q    E   
E||-----0----|---------|--------0--|-------0--|--0---0-0--|--0--2--3--|--5--3--2--|--0----0--|
B||----------|---------|-----------|----------|-----------|-----------|-----------|----------|
G||-----2----|---------|-----2-----|----------|--2--------|--2--------|--0--------|----------|
D||----------|---------|-----------|----------|--2--------|--2--------|--0--------|--2-------|
A||--0-------|--0------|--0--------|--0-------|--0--------|--0--------|-----------|--0-------|
E||----------|---------|-----------|----------|-----------|-----------|-----------|----------|


  Q    S S    E  E  S S    E  E  E     Q    E     E.  S E     E  E  E     E  E  E     Q    E   
-------3-2-|--3---------|--0--------|-------0--|--0---0-0--|--0--2--3--|--5--3--2--|--0----0--|
--3--------|-----0--1-3-|-----3--1--|--0-------|-----------|-----------|-----------|----------|
--0--------|------------|-----------|----------|--2--------|--2--------|--0--------|----------|
--0--------|--0---------|--0--------|--2-------|--2--------|--2--------|--0--------|--2-------|
-----------|------------|-----------|--2-------|--0--------|--0--------|-----------|--0-------|
-----------|------------|-----------|----------|-----------|-----------|-----------|----------|


  Q    S S    E  E  S S    E  E  E     Q.        S S E  E     Q    E     S S E  E     Q.      
-------3-2-|--3---------|-----------|---------|--3-2-3--2--|--0-------|--3-2-3--2--|--0------|
--3--------|-----0--1-0-|-----0-----|--0------|------------|--3-------|---------1--|--1------|
--0--------|-----0------|--2-----0--|---------|--2---------|-------0--|--2---------|---------|
--0--------|--0---------|-----------|--2------|------------|--0-------|------------|---------|
-----------|------------|--2--------|--2------|------------|----------|------------|--0------|
-----------|------------|-----------|---------|------------|----------|------------|---------|


                                        ^   ^                                                 
  E  E  S S    E  E  E     E  S S E     S S Q       E  Q       Q    E     E  E  E     Q.      
-----0--2-3-|--2-----2--|--0----2----|--0---0----|-----0----|----------|-----------|--0------|
--3---------|-----3-----|---------3--|-----------|----------|--3-------|--------1--|---------|
--2---------|--2-----0--|-----2------|--2---2----|--2-------|-------0--|-----2-----|---------|
--0---------|-----------|---------0--|--2-2-2----|----------|----------|--2--------|---------|
------------|-----------|------------|-----------|----------|----------|--0--------|--0------|
------------|-----------|------------|-----------|----------|----------|-----------|---------|


  ^                                             ^           ^                                     
                                                                           |--3--|                
  E  Q       Q    E     E  E  E     E  E  E     Q    S S    E  E  E     E  S  S  S E     Q    E   
-----0----|----------|-----------|--0--L-----|--0----0-0-|--0--2--3--|--5--3h-5p-3-2--|--0----0--|
----------|--3-------|--------1--|--------1--|--1--------|--1--------|----------------|----------|
--2-------|-------0--|-----2-----|-----2-----|--2--------|--2--------|----------------|--2-------|
--2-------|----------|--2--------|-----------|--2--------|--2--------|--0-------------|--2-------|
-----0----|----------|--0--------|-----------|--0--------|--0--------|----------------|--0-------|
----------|----------|-----------|-----------|-----------|-----------|--3-------------|----------|


                                                                                     ^         
       |--3--|                      |--3--|                                                    
  Q    T  T  T S    E  E  S S    E  S  S  S E     Q    E     E.  S E     E  E  E     E  E  E   
-------3h-5p-3-2-|--2---------|--0-------------|----------|--0---0-0--|--0--2--3--|--5--3--2--|
--3--------------|-----0--1-3-|-----3h-5p-3-1--|--0-------|-----------|-----------|--3--------|
-----------------|------------|----------------|-------2--|--2--------|-----2-----|-----------|
--0--------------|------------|----------------|--2-------|--2--------|--2--------|-----------|
-----------------|------------|----------------|--2-------|--0--------|-----------|-----------|
--3--------------|------------|--3-------------|--0-------|-----------|-----------|--3--------|


  Q    E     Q    S S    E  E  S S    E  E  E     Q.        S S E  E     E  Q       S S E  E   
--0----0--|-------3-2-|--2---------|-----------|---------|--3-2-3--2--|--0-------|--3-2-3--2--|
----------|--3--------|-----0--1-0-|-----0-----|---------|------------|----------|------------|
--2-------|--0--------|------------|--2-----0--|---------|------------|----------|--0------2--|
--2-------|--0--------|------------|--0--------|--2------|---------2--|-----0----|------------|
--0-------|-----------|------------|-----------|--2------|------------|----------|------------|
----------|--3--------|------------|--3--------|--0------|------------|----------|------------|


  Q.        E  E  S S    E  E  E     E  S S E     E  S S E     E  S S E     S S Q       Q.      
--0------|-----0--2-3-|--2-----2--|--L--0-2----|-----0-2----|-----0-2----|--0-0-0----|---------|
--1------|--3---------|-----3-----|---------3--|---------3--|---------3--|-----------|---------|
---------|------------|--0--------|------------|------------|------------|--2-2-2----|--2------|
---------|-----2------|-----------|------------|------------|------------|--2-2-2----|--0------|
---------|------------|-----------|--3---------|--3---------|--3---------|--0-0-0----|---------|
---------|------------|-----------|------------|------------|------------|-----------|---------|


                                                                            ^         ^       
  Q.        Q.        E  E  E     Q.        Q.        Q.        E  E  E     Q.        Q.      
---------|---------|-----------|---------|---------|---------|-----------|---------|---------|
---------|---------|--------1--|--0------|---------|--0------|--0-----0--|--3------|--3------|
--2------|--2------|--2--0-----|---------|---------|---------|-----------|--2------|--2------|
--0------|--0------|--0--------|---------|--2------|---------|--2--2--2--|--0------|--0------|
---------|---------|-----------|---------|--2------|---------|-----2-----|---------|---------|
---------|---------|-----------|---------|---------|---------|-----------|---------|---------|


  ^         ^  ^  ^     ^         ^         ^         ^                                           
  Q.        E  E  E     Q.        Q.        Q.        Q    E     E  E  E     Q    E     E  E  E   
---------|-----------|---------|---------|---------|-------0--|--0--0-----|----------|-----------|
--3------|-----------|--0------|--0------|--0------|--0-------|-----------|-------1--|--0-----1--|
--2------|--2--0--2--|---------|---------|---------|----------|-----2-----|--2-------|-----------|
--0------|--0--0--0--|--2------|--2------|--2------|--2----2--|--2-----2--|----------|-----------|
---------|-----------|---------|---------|--2------|--2-------|-----3-----|----------|-----3-----|
---------|-----------|--0------|--0------|---------|----------|-----------|----------|-----------|


                                                             ^                               
  E  S  S E     E  E  E     Q.        E  E  E     Q    E     E  Q       Q    E     E  E  E   
-------------|-----0-----|---------|-----------|-------0--|--2--2----|--L-------|--0--------|
--0--0h-1-3--|--3--------|---------|-----------|----------|--5-------|-------1--|--0-----1--|
-------------|-----------|--2------|-----------|--2-------|--5--2----|--L-------|-----------|
-------------|--------2--|---------|--------2--|-------2--|--2-------|----------|-----------|
-------------|-----------|---------|--0--3-----|----------|----------|----------|-----3-----|
-------------|-----------|---------|-----------|----------|----------|----------|-----------|


        |--3-|                                                                                   
  E  E  S  S S    Q    E     Q    E     E  E  E     E  E  E     E  E  E     Q    E     E  E  E   
---------------|--0-------|-------3--|--1--------|-----------|-----3-----|-------6--|--5-----6--|
--0--1--0h-1-3-|--0----1--|--3-------|-----------|--3--------|--3--------|----------|-----------|
---------------|----------|----------|--0--------|-----------|-----------|--0-------|-----------|
---------------|----------|----------|--------0--|-----0-----|--------0--|----------|-----------|
---------------|----------|----------|-----1-----|--------1--|-----------|----------|-----1-----|
---------------|----------|----------|-----------|-----------|-----------|----------|-----------|


                ^           ^                                                                     
    E  E  E     E  E  E     Q    E     Q.        Q.        Q.        Q    E     Q.        Q.      
--6g5--6--8--|--3-----6--|--8-------|---------|--3------|--4------|--L----3--|--1------|---------|
-------------|--3--------|--9-------|---------|---------|---------|----------|---------|--4------|
-------------|--3--------|--8-------|---------|---------|---------|----------|---------|---------|
-------0-----|-----0-----|--6-------|---------|---------|---------|----------|---------|---------|
-------------|-----------|-------3--|---------|---------|---------|----------|---------|---------|
-------------|-----------|----------|--4------|---------|---------|----------|---------|---------|


  Q.        Q.        Q.        S S Q       S S E  E     Q.        S S E  E     Q    E   
---------|---------|---------|-----------|------------|---------|------------|----------|
--3------|--L------|---------|-----------|------------|---------|------------|----------|
--2------|--L------|--2------|----2------|--3-2-3--2--|--0------|--3-2-3--2--|--0-------|
--0------|--L------|---------|--0---0----|------------|---------|------------|-------3--|
---------|---------|---------|-----------|------------|---------|------------|----------|
---------|---------|---------|-----------|------------|---------|------------|----------|


                                       ^                                                            
  E  S S E     E  E  E     E  E  E     Q.        S S E  E     E  E  S S    S S S S S S    E  E  E   
------------|-----------|-----------|---------|------------|------------|--------------|-----------|
------------|-----------|-----------|---------|--3-1-3--1--|--3---------|--3-4-3-1-----|-----------|
--0--2-3-2--|-----2--0--|--L--2-----|--2------|------------|--3--0--2-3-|----------3-2-|--0--2--3--|
------------|--3--------|--------3--|--3------|------------|------------|--------------|-----------|
------------|-----------|-----------|--5------|------------|------------|--------------|-----------|
------------|-----------|-----------|---------|------------|------------|--------------|-----------|


                  |--3--|                                                                 
  E  E  S S    E  S  S  S E     E.  S E     E  E  E     E  S S E     E  E  E     E  Q     
------------|----------------|-----------|--0--------|------------|-----------|----------|
----------1-|--2--1h-2p-1----|-----------|--2-----3--|--L--3-3-3--|--L--3-----|-----3----|
--2--3--3---|-------------3--|--2---3-0--|--2--------|------------|-----2-----|--0-------|
------------|----------------|-----------|-----0-----|------------|--------0--|----------|
------------|----------------|-----------|--0--------|------------|-----------|----------|
------------|----------------|-----------|-----------|------------|-----------|----------|


                                      ^                                           ^                
  Q    E     E  E  E     Q.        E  Q       Q    E     E  Q       Q    E     E  Q       Q.       
----------|-----------|---------|----------|----------|----------|----------|-----0----|--0------||
--1-------|-----------|--3------|-----3----|--3-------|--3--3----|-------3--|-----3----|--3------||
----------|-----0--3--|---------|--2--2----|--2----2--|--L-------|--2----2--|-----2----|---------||
-------3--|--L--------|---------|-----0----|-------0--|----------|----------|----------|---------||
----------|-----------|---------|----------|----------|----------|----------|--0-------|--0------||
----------|-----------|---------|----------|----------|----------|----------|----------|---------||




Duration Legend
---------------
W - whole
H - half
Q - quarter
E - 8th
S - 16th
T - 32nd
X - 64th
. - note dotted
|-n-|  - n-tuplets


Tablature Legend
----------------
L - tied note
x - dead note
g - grace note
(n) - ghost note
> - accentuded note
NH - natural harmonic
AH - artificial harmonic
TH - tapped harmonic
SH - semi harmonic
PH - pitch harmonic
h - hammer on
p - pull off
b - bend
br - bendRelease
pb - preBend
pbr - preBendRelease
brb - bendReleaseBend
\n/ - tremolo bar dip
\n - tremolo bar dive
-/n - tremolo bar Release up
/n\ - tremolo bar inverted dip
/n - tremolo bar return
-\n - tremolo bar Release down
S - shift slide
s - legato slide
/ -  slide into from below or out of upwards
\ -  slide into from above or out of downwards
~ - vibrato
W - wide vibrato
tr - trill
TP - tremolo picking
T - tapping
S - slap
P - pop
< - fade in
^ - brush up
v - brush down
Login or Register to remove this ad.