Ads

Swadian Hall (Mount & Blade: Warband) Guitar Tab

Submitted: Jun 23, 2018 by laoise

5
Average: 5 (1 vote)
Download | Listen
Game: Mount & Blade: Warband
Composer(s): Jesse Hopkins
Style: Arrangement, Fingerstyle

AutoScroll: Slow | Medium | Fast
Mount & Blade - Swadian Hall                               
Arranged by Laoise Earle

(Capo 4)

      ^                                 ^              ^              
      H        E  E  Q    Q    E  E     Q.     E  Q    H        Q     
E||---0--------0--0--0----0-------0--|--2------3--2----0--------0----|
B||----------------------------3-----|-------------------------------|
G||*--2------------------------------|--0--------------2-------------|
D||*--2-------------------2----------|--0--------------2-------------|
A||---3--------------0---------------|-------------------------------|
E||----------------------------------|-------------------------------|


  ^                                 ^               ^             
  Q    E  E  Q    Q    Q.     E     Q    E  E  Q    H.            
--3----3--2--0----2--------------|------------------0------------|
-----------------------3------1--|--0----0--1--3-----------------|
--0------------------------------|--0---------------2------------|
--0------------------------------|--0---------------2------------|
---------------------------------|-------------------------------|
---------------------------------|-------------------------------|


  ^                                  ^              ^              
  Q    Q    E  E  Q    Q    E  E     Q.     E  Q    H        Q     
-------0----0--0--0----0-------0--|--2------3--2----0--------0----|
----------------------------3-----|-------------------------------|
--2-------------------------------|--0--------------2-------------|
--2--------------------2----------|--0--------------2-------------|
--3---------------0---------------|-------------------------------|
----------------------------------|-------------------------------|


  ^                                 ^               ^                                            
  Q    E  E  Q    Q    Q.     E     Q    E  E  Q    H.              Q    H        H        Q     
--3----3--2--0----2--------------|-------------------------------|-------0----------------------|
-----------------------3------1--|--0----0--1--0-----------------|----------------3-------------|
--0------------------------------|--0---------------2------------|--2----------------------0----|
--0------------------------------|--0---------------2------------|------------------------------|
---------------------------------|------------------3------------|------------------------------|
---------------------------------|-------------------------------|------------------------------|


  Q    Q    Q    H.              Q    H        Q.     S S Q       H.           H        Q     
-----------------0------------|-------0---------------0--------|------------------------0----|
------------1-----------------|----------------3--------3------|-----------------------------|
--2----2----------------------|--2------------------------0----|--2------------2-------------|
--2---------------------------|--------------------------------|--2------------2-------------|
--0---------------------------|--------------------------------|-----------------------------|
------------------------------|--------------------------------|-----------------------------|


  ^             ^                  ^             ^                ^                              
  H        Q    Q.     E  E  E     Q    H        H        Q       Q    H        Q    Q    E  E   
--3--------5----7------8--7-----|--5----0----------------------|-------0------------------------|
-----------------------------8--|----------------3--------1----|--0-------------0------------0--|
--0-------------0---------------|--2-------------2-------------|--0-------------0---------0-----|
--0-------------0---------------|--2-------------0--------2----|--0------------------2----------|
--------------------------------|------------------------------|--------------------------------|
--------------------------------|------------------------------|--------------------------------|


  Q.     E  E  E  Q.     E  E  E     H        Q    Q.     E  Q       Q    H        H        Q     
------------------0---------------|-------------------------------|-------0----------------------|
---------0--1--3---------3--1--0--|----------------0------1--0----|----------------3-------------|
--2---------0---------------------|--0-------------0--------------|--2-------------2--------0----|
--2---------------2---------------|--0--------2----2--------------|--2-------------0-------------|
----------------------------3-----|-------------------------------|------------------------------|
----------------------------------|-------------------------------|------------------------------|


  Q    Q    Q    Q    Q    Q       H.           Q    H           Q    Q    Q    Q    Q    Q     
-----------------0--------------|-----------------------------|--------------------------------|
------------1---------3---------|--------------------0--------|--------------------------------|
--2----2-------------------0----|-----------------------------|--------------------------------|
--2-----------------------------|--2------------2-------------|--2----0------------------------|
--------------------------------|--0------------0-------------|------------3----2----0---------|
--------------------------------|-----------------------------|---------------------------3----|


  W                H           
-----------------------------||
-----------------------------||
----------------------------*||
----------------------------*||
--0--------------------------||
-----------------------------||




Duration Legend
---------------
W - whole
H - half
Q - quarter
E - 8th
S - 16th
T - 32nd
X - 64th
. - note dotted
|-n-|  - n-tuplets


Tablature Legend
----------------
L - tied note
x - dead note
g - grace note
(n) - ghost note
> - accentuded note
NH - natural harmonic
AH - artificial harmonic
TH - tapped harmonic
SH - semi harmonic
PH - pitch harmonic
h - hammer on
p - pull off
b - bend
br - bendRelease
pb - preBend
pbr - preBendRelease
brb - bendReleaseBend
\n/ - tremolo bar dip
\n - tremolo bar dive
-/n - tremolo bar Release up
/n\ - tremolo bar inverted dip
/n - tremolo bar return
-\n - tremolo bar Release down
S - shift slide
s - legato slide
/ -  slide into from below or out of upwards
\ -  slide into from above or out of downwards
~ - vibrato
W - wide vibrato
tr - trill
TP - tremolo picking
T - tapping
S - slap
P - pop
< - fade in
^ - brush up
v - brush down
Login or Register to remove this ad.

1 comment on Swadian Hall

Love this song!

5

This is my favourite song in M&B:Warband. I'm so glad that someone made guitar tabs for it. Thank you for this.