Ads

Pollyanna (I Believe In You) (Mother) Ukulele Tab

Submitted: Feb 19, 2019 by just-raito (Last updated: Apr 12, 2019)

0
Download | Listen
Game: Mother
Composer(s): Hirokazu Tanaka, Keiichi Suzuki
Style: Alternate picking, Transcription

This song is also called Home Sweet Home

AutoScroll: Slow | Medium | Fast
A|----------------------------------------|
E|------0--3--2--3---3--3-----0-----------|
C|--0-----------------------2-------------|
G|----------------------------------------|

A|----------------------------------------|
E|------0--3--2--3---3--3-----------------|
C|--0-------------------------------------|
G|----------------------------------------|

A|---------------7--4--5------------------|
E|--2--2--5--5----------------------------|
C|----------------------------------------|
G|----------------------------------------|
													x2
A|---2--2--5--5--9--------------------------|
E|--5----------------10---------------------|
C|---------------------9--7--7--------------|
G|------------------------------------------|



A|--------------------------------------14----14--10-9-7-9-10-9-7-9-10--|
E|-------------------------------7--10----------------------------------|
C|----6--4--2--4--6--4--2--6--------------------------------------------|							
G|----------------------------------------------------------------------|

A|--0--0--0--0--0-------------------------|
E|------------------2--0------------------|
C|------------------------2---------------|
G|----------------------------------------|

A|-----0--0--0--0--7----------------------|
E|---------------------10--9--10----------|
C|----------------------------------------|
G|--2-------------------------------------|

A|----------------------------------------------------------------------------------------|
E|---7-9-10-9-7-9-10-9-7-9-10-9-7-9-10-------10-9-7-9-10-9-7-9-10--10-10----10-10---------|
C|------------------------------------------9-9-------------------------------------------|
G|-------------------------------------------------------------------------------11-------| 
Login or Register to remove this ad.