Login or Register to remove this ad.

Magicant (Mother) Guitar Tab

Submitted: Mar 19, 2017 by ltm_1988

5
Average: 5 (1 vote)
Download | Listen
Game: Mother
Composer(s): Hirokazu Tanaka, Keiichi Suzuki
Style: Arrangement, Fingerstyle

AutoScroll: Slow | Medium | Fast
Magicant
Mother
Hirokazu Tanaka
ltm_1988
3/18/2017

     E  E  E  E  E  E     E  E  E  E  E  E    
E||--------------------|--------------------|
B||-----------------1--|-----------------1--|
G||*-------------0-----|--------------0-----|
D||*----------0--------|-----------0--------|
A||--------3-----------|--------3-----------|
E||--1--3--------------|--1--3--------------|

     E  E  E  E  E  E     E  E  E  E  E  E     E  E  E  E  E  E     E  E  E  E  E  E    
E||--------------------|--------------------|--------------------|--------------------|
B||--------------1--1--|--0--------------1--|-----------------1--|-----------------1--|
G||--------------0-----|--------------0-----|--2-----------0-----|--------------0-----|
D||-----------0--------|-----------0--------|-----------0--------|--0--------0--------|
A||--3-----3-----------|--------3-----------|--------3-----------|--------3-----------|
E||--1--3--------------|--1--3--------------|--1--3--------------|--1--3--------------|

     E  E  E  E  E  E     E  E  E  E  E  E     E  E  E  E  E  E     E  E  E  E  E  E    
E||--------------------|--------------------|--------------------|--------------------|
B||--------------------|--------------------|--------------------|--------------------|
G||-----------------0--|-----------------0--|-----------------0--|-----------------0--|
D||--2--0--------0-----|-----0--------0-----|-----0--------0-----|-----0--------0-----|
A||--3-----0--3--------|--3-----0--3--------|--------0--3--------|--3-----0--3--------|
E||--------------------|--5-----------------|--7-----------------|--3-----------------|

     E  E  E  E  E  E     E  E  E  E  E  E     E  E  E  E  E  E     E  E  E  E  E  E    
E||--------------------|--------------------|--------------------|--------------------|
B||--------------1--1--|--0--------------1--|-----------------1--|--0-----1-----3--1--|
G||--------------0-----|--------------0-----|--2-----------0-----|--------------0-----|
D||-----------0--------|-----------0--------|-----------0--------|-----------0--------|
A||--3-----3-----------|--------3-----------|--------3-----------|--------3-----------|
E||--1--3--------------|--1--3--------------|--1--3--------------|--1--3--------------|

     E  E  E  E  E  E     E  E  E  E  E  E     E  E  E  E  E  E     E  E  E  E  E  E   
E||--0-----------------|--------------------|--------------------|--------------------|
B||--------------------|--------------3-----|--0-----------------|--------------------|
G||-----------------0--|--2--------------0--|-----------------0--|-----------------0--|
D||-----0--------0-----|-----0--------0-----|-----0--------0-----|-----0--------0-----|
A||--3-----0--3--------|--3-----0--3--------|--3-----0--3--------|--3-----0--3--------|
E||--------------------|--------------------|--------------------|--------------------|

     E  E  E  E  E  E     E  E  E  E  E  E    
E||--------------------|--------------------|
B||--------------------|--------------------|
G||--------------1--3--|--------------1--3--|
D||--1--------1--------|--1--------1--------|
A||--------1-----------|-----1--4-----------|
E||-----4--------------|--------------------|

     E  E  E  E  E  E     E  E  E  E  E  E     E  E  E  E  E  E     E  E  E  E  E  E
E||--------------------|--------------------|--------------------|--------------------|
B||--0-----------------|--------------------|--------------------|--------------------|
G||-----------------1--|--------------1--1--|--3-----------1--3--|--------------1--3--|
D||-----------1--4--2--|--4--------1--2-----|--1--------1--------|--1--------1--------|
A||--------2-----------|--------2-----------|--------1-----------|--------1-----------|
E||--0--4--------------|--0--4--------------|-----4--------------|-----4--------------|

     E  E  E  E  E  E     E  E  E  E  E  E     E  E  E  E  E  E     H.                  
E||--------------------|--------------------|--------------------|--------------------|
B||--------------------|--------------------|--------------------|--0-----------------|
G||-----------------1--|-----------------1--|-----------------0--|--0-----------------|
D||-----------1--2-----|--1--------1--2-----|--0-----------2-----|--------------------|
A||--4-----2-----------|--------2-----------|--------0--2--------|--------------------|
E||--0--4--------------|--0--4--------------|-----2--------------|--------------------|

     E  E  E  E  E  E     Q     Q     Q        Q     Q     Q        Q     Q     Q       
E||--7--8--7--------0--|--------------------|--------------------|--------------------|
B||-----------8--10----|--8-----------------|--7-----------------|--------------------|
G||--------------------|--------------------|--------------------|--7-----------------|
D||--------------0-----|--------------0-----|--------------0-----|--------------0-----|
A||--8-----------------|--8-----------------|--8-----------------|--8-----------------|
E||--------8-----------|--------8-----------|--------8-----------|--------8-----------|

     E  E  E  E  E  E     Q     Q     Q        H.                   H.                x3 W  
E||--7--8--7--------0--|--3-----------------|--2-----------------|--------------------||-3-
B||-----------8--10----|--------------------|--------------------|--3-----------------||-1-
G||--------------------|--------------------|--------------------|-------------------*||-0-
D||--------------0-----|--3-----------0-----|--------------------|-------------------*||-2-
A||--8-----------------|--------3-----------|--------------------|--------------------||-3-
E||--------8-----------|--------------------|--------------------|--------------------||-3-
Login or Register to remove this ad.