Ads

Hippie Battle (Mother) Guitar Tab

Submitted: Jul 22, 2012 by Kabukibear

5
Average: 5 (7 votes)
Download | Listen
Game: Mother
Composer(s): Hirokazu Tanaka, Keiichi Suzuki
Style: Arrangement, Fingerstyle

AutoScroll: Slow | Medium | Fast
Hippie Battle                                   
~Mother~
Composed by: Hirokazu Tanaka, Keiichi Suzuki 
Arranged by: Justin Lincoln

Bpm=176


     E  E  E       E  E  E  E  E  E  E  E     E  E  E  E  E  E  E  E   
E||-----------||---5--5--5--5--5-----------|--------------------------|
B||--------5--||---5--5--5--5--5--7--5--7--|--5--5--5--5--5--7--5--7--|
G||--5--6-----||*--------------------------|--5--5--5--5--5-----------|
D||-----------||*--------------------------|--0-----------------------|
A||-----------||---0-----------------------|--------------------------|
E||-----------||---------------------------|--------------------------|


  E  E  E  E  E  E  E  E     E  E   E  E  E  E  E  E   
--5-----------5-----------|-----7s--8-----------------|
--5--7--5--7--5--7--5--7--|-----7s--8-----------------|
--------------------------|---------------------------|
--------------------------|---------------------------|
--0-----------0-----------|---------------------------|
--------------------------|-----0---0--0--0--0--0--0--|


   E  E     E  E   E  E     E  E     E   E     E  E   E  E     E  E   
--10-----9g10-----10-----9g10-----|-----10--9g10-----10-----9g10-----|
----------------------------0-----|----------------------------0-----|
----------------------------------|----------------------------------|
---0--0------------7--7--------7--|--0---0------------7--7--------7--|
------------9--9------------------|------------9--9------------------|
----------------------------------|----------------------------------|


  E  E  E  E  E  E  E  E     E  E  E  E  E  E  E  E   
--5--5--5--4--5--5--4--5--|-----8--5-----0-----------|
--5--5--5--5--5--5--5--5--|-----------8--------------|
--------------------------|-----------------7--5--2--|
--------------2--2--4--2--|--------------------4--2--|
--0--0--4--4--------------|--0--0--4--4--7--7--------|
--------------------------|--------------------------|


    E  E    E  E  E  E  E  E     E  E  E  E  E  E  E  E   
------------------------------|--------------------------|
--3g4-----3g4-----4--3--------|--------------------------|
------------------------5--2--|-----2--0-----------------|
------------------------------|-----------2--1--0--------|
------------------2--2--4--2--|--0-----------------3--0--|
----0--0----4--4--------------|--------------------------|


  E  E  E  E  E  E  E  E     E  E  E  E  E  E  E  E   
--------0--5--3--0--------|--------------------------|
-----4--------------3--1--|--------------------------|
--------------------------|--------------------------|
--------------------------|--7--------2--L-----------|
--0--0--0--0--0--0--0--0--|--------------------------|
--------------------------|--0--0--0--0--0--0--0--0--|


  E  E  E  E  E  E  E  E     E  E  E  E  E  E  E  E   
--------------------------|--------------------------|
--------------------------|--------------------------|
--------------------------|--------------------------|
--2--2--4--2--2--2--4--2--|--2--2--4--2--5--2--4--2--|
--0--0--0--0--0--0--0--0--|--0--0--0--0--0--0--0--0--|
--------------------------|--------------------------|


  E  E  E  E  E  E  E  E     E  E  E  E  E  E  E  E   
--------------------------|--------------------------|
--------------------------|--------------------------|
--------------------------|--------------------------|
--2--2--4--2--2--2--4--2--|--2--2--4--2--5--2--4--2--|
--0--0--0--0--0--0--0--0--|--0--0--0--0--0--0--0--0--|
--------------------------|--------------------------|


  E  E  E  E  E  E  E  E     E  E  E  E  E  E  E  E   
--------------------------|--------------------------|
--------------------------|--------------------------|
--2--2--4--2--2--2--4--2--|--2--2--4--2--5--2--4--2--|
--0--0--0--0--0--0--0--0--|--0--0--0--0--0--0--0--0--|
--------------------------|--------------------------|
--------------------------|--------------------------|


  E  E  E  E  E  E  E  E     E  E  E  E  E  E  E  E   
--------------------------|--------------------------|
--------------------------|--------------------------|
--------------------------|--------------------------|
--2--2--4--2--2--2--4--2--|--5--2--4--2--2--2--4--2--|
--0--0--0--0--0--0--0--0--|--0--0--0--0--0--0--0--0--|
--------------------------|--------------------------|


  E  E  E  E  E  E  E  E     E  E  E  E  E  E  E  E   
--------------------------|--------------------------|
--------------------------|--------------------------|
--------------------------|--2--2--4--2--2--2--4--2--|
--------------------------|--0--0--0--0--0--0--0--0--|
--2--2--4--2--2--2--4--2--|--------------------------|
--0--0--0--0--0--0--0--0--|--------------------------|

                            1st Ending --------------
  E  E  E  E  E  E  E  E     E  E  E  E  E  E  E  E     
--------------------------|---------------------------||
--------------------------|-----------------------5---||
--------------------------|-----------------5--6-----*||
--2--2--4--2--2--2--4--2--|--5--2--4--2--2-----------*||
--0--0--0--0--0--0--0--0--|--0--0--0--0--0------------||
--------------------------|---------------------------||

2nd Ending --------------
  E  E  E  E  E  E  E  E     E   E   E  E   E  E  E  E   
--------------------------|-----12--10--8---------------|
--------------------------|----------------10--8--------|
--------------------------|-----------------------9--7--|
--5--2--4--2--2--2--4--2--|-----------------------------|
--0--0--0--0--0--0--0--0--|--0--------------------------|
--------------------------|-----------------------------|


                     ^                          
   E   E  E  E  Q    Q       W                  
----------0----------3----|--L----------------||
---------------------2----|--L----------------||
-------------2--L----2----|--L----------------||
--10--11-----2--L----2----|--L----------------||
---L-----------------0----|--L----------------||
--------------------------|-------------------||




Duration Legend
---------------
W - whole
H - half
Q - quarter
E - 8th
S - 16th
T - 32nd
X - 64th
. - note dotted
|-n-|  - n-tuplets


Tablature Legend
----------------
L - tied note
g - grace note
^ - brush up
v - brush down
Login or Register to remove this ad.

2 comments on Hippie Battle

Man that's funky.

5

Man that's funky.

ahahha oh MAN this tab

5

ahahha oh MAN this tab