Ads

The End (Mother) Guitar Tab

Submitted: Jul 24, 2017 by tomorning

5
Average: 5 (5 votes)
Download | Listen
Game: Mother
Composer(s): Hirokazu Tanaka, Keiichi Suzuki
Style: Arrangement, Fingerstyle, Trill

AutoScroll: Slow | Medium | Fast

July , 25 / 2017

                                                  The End                                                     
                                 from game (NES) " MOTHER"

Music by Keiichi Suzuki (鈴木 慶一) / Hirokazu Tanaka (田中 宏和)



Standard Tuning (EADGBE , with Capo 2)

Andante (q=62)

     E  E  E  E  E  E  Q       E  E  E  E  E  E  E  E     E  E    E  E  E  E  E  E   
E||--------0--3-------------|--8--7--5-----3-----------|--5--7--7g8-----------------|
B||--1--3--1-----3----------|--------5--5--------------|-------------8-----1-----1--|
G||-----0--------------2----|-----5-----------------0--|-----5----------------0-----|
D||-----------------3-------|--------------------2-----|----------------------------|
A||--3----------------------|--0--------------2--------|--8----------7--------------|
E||--------------1----------|--------------0-----------|-------------------0--------|


  E  E  E  E  E  E  E  E     E  E  E  E  E  E  E  E     E  E  E  E  E  E  E  E     E  E  E  E  E  E  E  E   
--1--0--------------------|--------------------1-----|--0--1--3--0-----0--1-----|-----1--0--------------0--|
--------1--------------0--|--------0-----1--------0--|--------------3--------3--|-----------1--3-----------|
-----------0--------0-----|--2--------0-----2--------|--------------------0-----|--2--------------0--0-----|
-----------------0--------|-----3--------------------|--------2-----------------|--------3-----------------|
--------3--2--------------|--------------0-----2-----|--3-----------------------|-----3--------------------|
--1-----------------------|--1-----3-----------------|--------------3-----------|--1-----------3-----------|


  E  E  E  E      E  E  E  E  H           E  E  E  E  E  E  Q        E   E  E  E  E  E  Q     
--0-----------||--------0--3-----------|--8--7--5----------------|----------8--3-------------|
--1--1--------||--1--3--------3--------|--5--------5--8----------|--10--12--------------1----|
--------0-----||--0-----------0--------|--5-----------------7----|--10------------------0----|
-----------2--||--------------0--------|-----------------5-------|-------------------2-------|
--------------||--3--------------------|--0----------------------|---8------------3----------|
--------------||-----------------------|--------------0----------|---------------------------|

     tr
  E  E  E  E  H           E  E  Q    E  E  Q       E  E  E  E  E  E  E  E     E  E  E  E  E  E  Q     
--1--0-----------------|-------------------1----|--0--1--3--0--------------|-----1--0----------------|
--------1--------------|--------0----1----------|--0-----------3--5--6--3--|-----------1--3----------|
--2--------0-----------|--2-------------2-------|--0-----------3-----------|--2-----------------0----|
--0--------0-----------|-----2------------------|--2-----------5-----------|--3--------------3-------|
-----------------------|--0----------2----------|--3-----------------------|-------------------------|
-----------3-----------|------------------------|--------------------------|--------------3----------|


  Q    E  S S H            S S E  E  E  S S E  E  E     S S S S E  E  S S S  S E  E   
----------0------------||---------0--3---------------|--8---7---5--0--3--------------|
--1---------3-1--------||--1---3--------3------0-----|--------5----------------0-----|
-------0------0--------||----0--------------0-----0--|------5---------------------0--|
--2--------------------||-----------------0----------|----5---------------0h-2-------|
--3-----------3--------||--3-------------------------|--0---------------2------------|
-----------------------||---------------3------------|----------------0--------------|


                |--3--|                                                                    
   E   E  E  E  E  E  E  Q       S S E  E  E  S S E  Q       S S S S S S S S S S S S Q     
----------8--3----------------|--1---0--------------------|--------------------------1----|
--10--12-----------------1----|------3--1-----------------|----------0-------1------------|
--10------------------0-------|----2-------0---------0----|--2-----------2-------2---2----|
--10---------------2----------|--0----------------0-------|------3-----3---3---3---3------|
---8------------3-------------|-----------------2---------|----3---3---------0------------|
------------------------------|---------------3-----------|--1----------------------------|


  E  E  E  E  S S E  E  E     S S E  E  E  S S S  S S S E     S S S S S S S S S S E  Q     
--0--1--3--0------0--1-----|------1--0---------------------|----------0-------------------||
--0-----------3---------3--|------------1--3------------0--|--1-----1-------3-1-----------||
--0---------------0--------|--2-----------------------0----|------0-------0-----0---------||
--2-------------2----------|----2-------------------0------|----2-------2---------2-------||
--3------------------------|--0----------------0h-2--------|--3----------------------3----||
--------------3------------|-----------------3-------------|------------------------------||


  Q    Q    Q    Q       Q    Q    Q    Q       Q    Q    Q    Q       Q    Q    H         
--1---------6----5----|--1-------------------|----------------------|---------------------||
----------------------|------------1---------|----------------------|------------1--------||
----------------------|------------2----3----|--3---------5----0----|--0------------------||
-------3----0---------|-------3--------------|-------3----6---------|------------2--------||
--1--------------3----|--0-------------------|----------------------|-------3-------------||
----------------------|----------------------|--4-------------------|--3------------------||


Double Tempo (q=128)

  E  E  E  E  Q    Q       E  E  E  E  H           E  E  E  E  Q    Q       E  E  E  E  H         
------------------------|-----------------------|------------------------|-----------------------|
-------------------1----|--1-----------3--------|------------------------|-----------------------|
--2-----------3---------|--------3--------------|--0-----------2----3----|--2--------------------|
--------3---------------|-----3-----3-----------|-----------0--2---------|--------3-----3--------|
-----3-----3------------|--1--------------------|--3-----3---------------|-----3-----3-----------|
--1---------------------|-----------------------|-----3------------------|--1--------------------|


  E  E  E  E  Q    Q       E  E  E  E  Q    Q       H        H           H        E  E  E  E   
------------------------|------------------------|--------------------|-----------------0--3--|
------------------------|------------------------|--------------------|--------------1--------|
--------------0---------|--------------0---------|--------------------|-----------0-----------|
--3--------3-------0----|--2-----3----------0----|--2--------0--------|-----------------------|
--5-----5---------------|-----2-----2------------|--3-----------------|--3--------------------|
-----5------------------|--3---------------------|--------------------|-----------------------|


  E  E  E  E  Q     Q       E  E  E  E   H           E  E  E  E  Q    Q       E  E  E  E  H         
--5-----------6s----8----|--8-----------10--------|--3-----------5----6----|--5--------------------|
--------6----------------|-----------6------------|--------5---------------|--------------6--------|
-----5-----5-------------|--------7---------------|-----5-----5------------|--------5--------------|
--3----------------------|-----8------------------|------------------------|-----7-----7-----------|
-------------------------|------------------------|--3---------------------|--8--------------------|
-------------------------|--6---------------------|------------------------|-----------------------|


  E  E  E  E  Q    Q       E  E  E  E  Q    Q       E  E  E  E  E  E  E  E     E  E  E  E  Q    Q     
--1-----------3---------|--0-----1-----3---------|--0-----------------------|------------------------||
--------3----------3----|-----------0-------3----|--------------3-----------|--1---------------------||
-----2-----2------------|--------0---------------|-----0-----------0--------|-----3--0---------------||
--0---------------------|-----0------------------|--------2-----------2-----|-----------2------------||
------------------------|------------------------|--3--------3-----------3--|--------------3----1----||
------------------------|--3---------------------|--------------------------|------------------------||


  E   E  E  E  Q    Q       E  E  E  E  E  E  E  E     E  E  E  E  Q    Q       E  E  E  E  E  E  E  E   
-------------------------|-----------------0--1--3--|--0---------------------|-----3--1--0--------------|
--------------------1----|--1-----------3-----------|------------------------|--------------1-----------|
--2------------3---------|--------3-----------------|--0-----------2----3----|--2--------------3--2--0--|
---------3---------------|-----3-----3--------------|-----------0--2---------|--------------3-----------|
--0h--3-----3------------|--1-----------------------|--3-----3---------------|--------------------------|
--1----------------------|--------------------------|-----3------------------|--1-----------------------|


  E  E  E  E  Q    E  E     E  E  E  E  E  E  E  E     E  E  E  E  E  E  E  E     E  E  E  E  E  E  E  E   
-------------------------|-----0-----------------1--|--0-----------------3--1--|--0-----------------------|
-------------------------|--------3--1--0--1--3-----|-----3--1--0--------------|--------------------------|
--------------0----------|--------------0-----2-----|--------------2--0--------|-----3--0-----------0-----|
--3--------3-------0-----|--2-----3-----------------|--2-----------0-----------|-----------2-----2-----2--|
--5-----5-------------2--|--------------------------|--------------------------|--3-----------3-----------|
-----5-------------------|--3-----------------------|--------------------------|--------------------------|


  E  E  E  E  E  E  E  E     E  E  E  E  E  E  E  E     E  E  E  E  E  E  E  E     E  E  E  E  E  E  E  E   
--------------------1-----|--------------------------|--------------------------|-----------------1--5--3--|
--------------1-----------|--3-----------------------|--1-----------------------|--------------1-----------|
--2--------2-----------2--|--3-----------3-----------|--0-----------0-----3-----|--2--------2--------------|
--------3--------3--------|-----3-----3-----3-----3--|-----2-----2-----2-----2--|--------3-----------------|
-----3--------------------|--------1-----------1-----|--------3-----------------|-----3--------------------|
--1-----------------------|--------------------------|--------------------------|--1-----------------------|


                                                                                 rit......................
  E  E  E  E  E  E  E  E     E  E  E  E  E  E  E  E     E  E  E  E  E  E  E  E     E  E  E  E  H         
--1-----------3-----5-----|--3-----------------------|--------------------------|-----------------------|
--------3--------3-----0--|--------------3-----------|--6-----------5-----------|--6-----------8--------|
-----2-----2--------------|--------0-----------0-----|--------3-----------3-----|--------5--------------|
--0-----------------------|-----0-----0-----0-----0--|-----5-----5-----5-----5--|-----5-----5-----------|
--------------------------|--------------------------|--3-----------3-----------|--0--------------------|
--------------------------|--3-----------3-----------|--------------------------|-----------------------|


a Tempo (q=64)
                                              <                  
  H        Q    Q        H        H           W                  
--5-------------8----|---------------------|-------------------||
--6--------8---------|--10--------8--------|-------------------||
-----------8---------|---7--------7--------|-------------------||
---------------------|---------------------|-------------------||
---------------------|---8--------6--------|-------------------||
---------------------|---------------------|-------------------||  fine....

Login or Register to remove this ad.