Ads

Eight Melodies (Mother) Guitar Tab

Submitted: Apr 03, 2012 by The Ripper

4.6
Average: 4.6 (5 votes)
Download | Listen
Game: Mother
Composer(s): Hirokazu Tanaka, Keiichi Suzuki
Style: Arrangement, Fingerstyle

AutoScroll: Slow | Medium | Fast
                                      Mother. 
                                       Nes.
                                  Eight Melodies.
  		     Composed By Keiichi Suzuki and Hirokazu Tanaka.
                           Tabbed By The Ripper April 2nd 2012.
                                 Dropped D Tuning.



     Q    Q    Q    Q       Q    Q    Q    Q        Q    Q    Q    Q     
E||--------0----2----5----|--0--------------L----|--10----9----7---------|
B||---3-------------------|-----------------2----|------------------7----|
G||*-----------------2----|------------2---------|------------------6----|
D||*------------0---------|-------2--------------|-------------7---------|
A||--------0--------------|--0-------------------|--------9--------------|
D||---0-------------------|----------------------|---9-------------------|


  Q    Q    Q    Q       Q    Q     Q    Q       Q    Q    Q    Q     
--5--------------L----|--7----9----10----5----|--L-------------------|
-----------------2----|------------------3----|-------3---------L----|
------------2---------|-------------0---------|-----------------2----|
-------2--------------|-------0---------------|------------0---------|
--0-------------------|-----------------------|-------0--------------|
----------------------|--5--------------------|--0-------------------|


  Q    Q    Q    Q       Q    Q    Q    Q       Q    Q    Q    Q     
--3----2--------------|----------------------|----------------------|
------------3---------|----------------------|--0----L----2----L----|
------------0----2----|------------L----2----|----------------------|
-------0--------------|------------2---------|-------0---------2----|
-----------------0----|--L----0--------------|------------0---------|
--5-------------------|----------------------|--5-------------------|


  Q    Q    Q    Q       Q    Q    Q    Q       Q    Q    Q    Q     
-------L----3----L----|--2----3----5----2----|--0----2----3----2----|
--3-------------------|------------3----3----|-------2----5----2----|
-----------------0----|-------2--------------|--2-------------------|
-------4----0---------|--0-------------------|----------------------|
--2-------------------|----------------------|----------------------|
----------------------|----------------------|----------------------|


  Q    Q    Q    Q       H        H           H        Q    Q     
-------3----2---------|--0-----------------|----------------0----|
--0----3----0----3----|-----------2--------|--3------------------|
--0--------------0----|--2-----------------|--2--------2---------|
-----------------L----|-----------2--------|---------------------|
----------------------|--------------------|--0------------------|
----------------------|--------------------|---------------------|


  W                   
--------------------||
--3-----------------||
-------------------*||
--0----------------*||
--------------------||
--0-----------------||



Legend
---------------
W - whole
H - half
Q - quarter
E - 8th
L - tied note


                                   
Login or Register to remove this ad.

2 comments on Eight Melodies

Wonderful~ This is somethin'

5

Wonderful~ This is somethin' I'd play for a long time, great tab. Thanks for making it =)

simple but nice! I like it.

5

simple but nice! I like it.