Ads

Bein' Friends (Mother) Guitar Tab

Submitted: Jan 04, 2014 by Kabukibear

5
Average: 5 (6 votes)
Download | Listen
Game: Mother
Composer(s): Hirokazu Tanaka, Keiichi Suzuki
Style: Arrangement, Fingerstyle

AutoScroll: Slow | Medium | Fast
Bein' Friends                                   
~Mother~
Composed By: Hirokazu Tanaka, Keiichi Suzuki
Arranged By: Justin Lincoln



     E  E  E  Q    E  Q       E  E  E  Q    E  Q       E  E  E  Q    E  Q     
E||--5--5-----6----6-------|--3--3-----5----5-------|--1--1-----3----3-------|
B||------------------------|------------------------|------------------------|
G||--5--5-----7----7-------|--3--3-----5----5-------|--2--2-----3----3-------|
D||--------0----------0----|--L-----0----------0----|--L-----0----------0----|
A||------------------------|------------------------|------------------------|
E||------------------------|------------------------|------------------------|


  E  E  E  E  E  E  E  E       E  S S E  E  E  S S E  E   
--0--0-----1--L-----------||-----------------------------|
--------------------------||-----------------------------|
--0--0-----2--L-----------||*--2------2--3-----3---------|
--L-----0--------0--------||*-----3----------------0-----|
--------------------0-----||----------0-----1----1----1--|
-----------------------3--||---1----1----1---------------|


  E  S S E  E  E.  S E  E     E  S S E  E  E  S S E  E   
---------------------------|----------------------------|
--1------------------------|-----1----------------------|
-----0---3--2--L-----------|--3------3--2--L--0---L--3--|
---------2-----------------|---------3------------0-----|
--3----3----3--------0-----|--1----1--------------------|
---------------1---1----1--|------------1--3----3----3--|


  E  S S E  E  E.  S E  E     E  S S E  E  E  S S E  E   
---------------------------|----------------------------|
---------------------------|----------------------------|
--2------0-----------------|--2------2--3-----3---------|
-----2------3--L-----------|-----3----------------0-----|
--0----0----0--5---5-0--5--|---------0-----1----1----1--|
---------0-----------------|--1----1----1---------------|


  E  S S E  E  E.  S E  E     E  S S E  E  E  S S E  E   
---------------------------|----------------------------|
--1------------------------|-----1----------------------|
-----0---3--2--L-----------|--3------3--2--L--0---L--3--|
---------2-----------------|---------3------------0-----|
--3----3----3--------0-----|--1----1--------------------|
---------------1---1----1--|------------1--3----3----3--|


  E  S S E  E  E.  S E  E     E  E  E  E  E  E  E  E   
---------------------------|--------------------------|
---------------------------|-----------------1--1--1--|
--2------0-----------------|--------------2--------0--|
-----2------3--L-----------|--------3--3--------3-----|
--0----0----0--5---5-0--5--|-----3--L-----------------|
---------0-----------------|--1--------1--3-----------|


  E  E  E  E  E  E  E  E     E  S S E  E  E  E  E  E   
--1-----0-----------0-----|-----0---------------------|
--------------3-----------|--3----3-1-----------------|
--------2-----------3-----|---------------------3-----|
-----3-----------3-----3--|------------------3--------|
--0--------0--1-----------|---------------------------|
--------------------------|--1---------1--3--------3--|


   E  E  E   E   E  E  E  E     E  E  E  E  E  E  E  E   
--10--8--8------10-----8-----|--------------------------|
------------10---------------|-----------------1--1--1--|
--10--9--9------10-----------|--------------2--------0--|
------------10---------------|--------3--3--------3-----|
---0--0--0---0---------------|-----3--L-----------------|
-----------------6--6--6--6--|--1--------1--3-----------|


  E  E  E  E  E  E  E  E     E  S S E  E  E  E  E  E   
--1-----0-----------0-----|---------------------------|
--------------3-----------|--3--5-3-------------------|
--------2-----------3-----|---------5--------5--------|
-----3-----------3-----3--|---------------7--------7--|
--0--------0--1-----------|--0---------7--------7-----|
--------------------------|---------------------------|


   E  E  E   E   E  E  E  E     Q    E  E  Q    E  E   
--10--8--8------10-----8-----|------------------------|
------------10---------------|--3---------------1-----|
--10--9--9------10-----9-----|--3----3-----0----0--3--|
------------10---------------|-------3-----2-------2--|
---0--0--0---0---0--0--0--0--|--1----L--1--3----------|
-----------------------------|------------------0--3--|

                          1st Ending -----------------------------------,
  Q    E  E  E  E  E  E     E  E  E  E  Q    E  E     W                   
-------------------------|-------------------------|--------------------||
-------------------------|--3--1-------------------|--------------------||
--2----------------------|--------3--2--0----------|-------------------*||
--3----3-----------------|--3--2--0-----2----3--2--|--3----------------*||
-------------3--------0--|--1--------1--3----3-----|--3-----------------||
--1-------1--1--1--4-----|-------------------------|--1-----------------||

 2nd Ending ---------------------------------,
  E  E  E  E  Q    E  E     W                  
-------------------0-----|--1----------------||
--3--1-------------------|--1----------------||
--------3--2--0----3-----|--2----------------||
--3--2--0-----2-------2--|--3----------------||
--1--------1--3----3-----|--3----------------||
-------------------------|--1----------------||




Duration Legend
---------------
W - whole
H - half
Q - quarter
E - 8th
S - 16th
T - 32nd
X - 64th
. - note dotted
|-n-|  - n-tuplets


Tablature Legend
----------------
L - tied note
x - dead note
g - grace note
(n) - ghost note
> - accentuded note
NH - natural harmonic
AH - artificial harmonic
TH - tapped harmonic
SH - semi harmonic
PH - pitch harmonic
h - hammer on
p - pull off
b - bend
br - bendRelease
pb - preBend
pbr - preBendRelease
brb - bendReleaseBend
\n/ - tremolo bar dip
\n - tremolo bar dive
-/n - tremolo bar Release up
/n\ - tremolo bar inverted dip
/n - tremolo bar return
-\n - tremolo bar Release down
S - shift slide
s - legato slide
/ -  slide into from below or out of upwards
\ -  slide into from above or out of downwards
~ - vibrato
W - wide vibrato
tr - trill
TP - tremolo picking
T - tapping
S - slap
P - pop
< - fade in
^ - brush up
v - brush down
Login or Register to remove this ad.

2 comments on Bein' Friends

Great job!!

Great job!!

not sure if im glad or upset

5

not sure if im glad or upset that i just now found out about this tab but either way its amazing.