Ads

All That I Needed Was You (Mother) Guitar Tab

Submitted: Jan 01, 2014 by Kabukibear

5
Average: 5 (5 votes)
Download | Listen
Game: Mother
Composer(s): Hirokazu Tanaka, Keiichi Suzuki
Style: Arrangement, Fingerstyle

AutoScroll: Slow | Medium | Fast
All That I Needed Was You                             
~Mother~
Composed by: Hirokazu Tanaka, Keiichi Suzuki
Arranged by: Justin Lincoln
 
Drop D (Capo 2)



     E  E  E  E  E  E  E  E     E  E  E  E  H         4x
E||--------------------------|------------------------||
B||--------------------------|------------------------||
G||-----0--------------------|-----0-----------------*||
D||--------0--3--L--------0--|--------0--3--L--------*||
A||-----------------3--L-----|------------------------||
D||--5-----------------------|--5---------------------||


  E  E  E  E  E  E  E  E     E  E  E  E  E  E  E  E   
--------------------------|--------------------------|
-----------------0--L--3--|--L-----------------------|
-----------0--2-----------|--------------2--4--L--2--|
--------0-----------0-----|--------2--5--------2-----|
-----2--------------------|-----2--------------------|
--5--------5--5-----------|--2--------2--2-----------|


  E  E  E  E  E  E  E  E     E  E  E  E  E  E  E  E   
--------------------------|--------------------------|
--------------------------|-----0--L-----0-----0-----|
--L-----------2--0--L--2--|--L--------------2-----0--|
--------4-----------------|--------4-----------1-----|
-----4--------------1-----|--2--------2--2-----------|
--4--------4--4-----------|--------------------------|


  E  E  E  E  E  E  E  E     E  E  E  E  E  E  E  E   
--------------------------|--------------0-----0-----|
--------------0-----0-----|-----------------3-----3--|
--L--------------2-----0--|--L-----0-----------0-----|
--------2-----------2-----|-----2--------------------|
-----2--------------------|--3--------3--3-----------|
--2--------2--2-----------|--------------------------|


  E  E  E  E  E  E  E  E     E  E  E  E  E  E  E  E   
--------------------------|--------------------------|
--L-----------0-----------|--------------------------|
-----------------2--0--2--|--L-----------0-----2-----|
--------0-----------0-----|--------4-----------------|
-----2--------------------|-----0-----------0-----0--|
--5--------5--5-----------|--0--------0--0-----------|


  E  E  E  E  E  E  E  E     E  E  E  E  E  E  E  E   
--------------------------|--------------------------|
-----------------0--L--3--|--L-----------------------|
-----------0--2-----------|--------------2--4--L--2--|
--------0-----------0-----|--------2--5--------2-----|
-----2--------------------|-----2--------------------|
--5--------5--5-----------|--2--------2--2-----------|


  E  E  E  E  E  E  E  E     E  E  E  E  E  E  E  E   
--------------------------|--------------------------|
--------------------------|-----0--L-----0-----0-----|
--L-----------2--0--L--2--|--L--------------2-----0--|
--------4-----------------|--------4-----------1-----|
-----4--------------1-----|--2--------2--2-----------|
--4--------4--4-----------|--------------------------|


  E  E  E  E  E  E  E  E     E  E  E  E  E  E  E  E   
--------------------------|--------------0-----0-----|
--------------0-----0-----|-----------------3-----3--|
--L--------------2-----0--|--L-----0-----------0-----|
--------2-----------2-----|-----2--------------------|
-----2--------------------|--3--------3--3-----------|
--2--------2--2-----------|--------------------------|


  E  E  E  E  E  E  E  E     E  E  E  E  E  E  E  E   
--------------------------|--------------------------|
--L-----------0-----------|--------------0-----1--0--|
-----------------2--0--2--|--L-----------0-----2--0--|
--------0-----------0-----|--------4-----------------|
-----2--------------------|-----0-----0-----0--------|
--5--------5--5-----------|--0-----------------------|


  E  E  E  E  E  E  E  E     E  E  E  E  E  E  E  E     E  E  Q    E  E  Q     
--------------------------|--------------------------|------------------------|
--L-----------------------|--------------------------|------------------------|
--------------0-----2-----|--------------0-----2-----|--------3----3-----3----|
--------2-----------------|--------2-----------------|--------1---------------|
-----2-----2-----2-----2--|-----2-----2-----2-----2--|-----1----------1-------|
--2-----------2-----------|--2-----------2-----------|--1---------------------|


  E  E  E  E  E  E  Q       E  E  E  E  E  E  E  E     E  E  E  E  E  E  E  E   
-------------------------|--------------------------|--1-----------------------|
-------------------------|--------------------1--3--|--------------3-----------|
--2-----2--2--L--0--2----|-----------------3--------|--2-----------2-----------|
--------3----------------|--3--------0--L-----------|--------0--------0--------|
-----3--------------3----|--1-----3-----------------|-----0-----0--------0-----|
--3----------------------|-----3--------------------|--0-----------0--------0--|


  E  E  Q    E  E  E  E     E  E  E  E  E  E  Q       E  E  E  E  E  E  E  E   
-------------------------|-------------------------|--------------------------|
-------------------------|-------------------------|--------------------------|
--------3----3-----3-----|--2-----2--2--L--0--L----|--------------------------|
--------1-------1--------|--------3----------------|--3--------0--L-----0-----|
-----1----------------1--|-----3--------------3----|--1-----3--------3-----1--|
--1----------------------|--3----------------------|-----3--------------------|


  E  E  E  E  E  E  E  E     E  E  Q    E  E  Q       E  E  E  E  E  E  Q     
--------------------------|------------------------|-------------------------|
--------------------------|------------------------|-------------------------|
--------------2--------2--|--------3----3-----3----|--2-----2--2--L--0--2----|
--4--------4--------4-----|--------1---------------|--------3----------------|
--------0--------0--------|-----1----------1-------|-----3--------------3----|
-----0--------0-----------|--1---------------------|--3----------------------|


  E  E  E  E  E  E  E  E     E  E  E  E  E  E  E  E   
--------------------------|--1-----------------------|
--------------------1--3--|--------------3-----------|
-----------------3--------|--2-----------2-----------|
--3--------0--L-----------|--------0--------0--------|
--1-----3-----------------|-----0-----0--------0-----|
-----3--------------------|--0-----------0--------0--|


  E  E  E  E  E  E  E  E     E  E  E  E  E  E  E  E     Q    E  E  E  E  Q     
--------------------------|--------------------------|------------------------|
--------------------------|--------------------------|--2----2--2--L--0--2----|
--------3--3--L--2--0-----|--------4--4--L--2--0-----|--2----2--2--L--2--2----|
--------1--1--L-----1-----|--------2--2--L-----2-----|------------------------|
-----1--L-----------L-----|-----2--L-----------L-----|--0----0--0--L--0--0----|
--1--------------------1--|--2--------------------2--|------------------------|


  W                   H        E  E  Q       E  E  E  E  E  E  E  E   
-------------------|----------------------|--------------------------|
--3----------------|----------------------|-----------------0--L--3--|
--2----------------|----------------------|-----------0--2-----------|
--4----------------|----------------------|--------0-----------0-----|
-------------------|----------------------|-----2--------------------|
--0----------------|-----------0--2--5----|--5--------5--5-----------|


  E  E  E  E  E  E  E  E     E  E  E  E  E  E  E  E   
--------------------------|--------------------------|
--L-----------------------|--------------------------|
--------------2--4--L--2--|--L-----------2--0--L--2--|
--------2--5--------2-----|--------4-----------------|
-----2--------------------|-----4--------------1-----|
--2--------2--2-----------|--4--------4--4-----------|


  E  E  E  E  E  E  E  E     E  E  E  E  E  E  E  E   
--------------------------|--------------------------|
-----0--L-----0-----0-----|--------------0-----0-----|
--L--------------2-----0--|--L--------------2-----0--|
--------4-----------1-----|--------2-----------2-----|
--2--------2--2-----------|-----2--------------------|
--------------------------|--2--------2--2-----------|


  E  E  E  E  E  E  E  E     E  E  E  E  E  E  E  E   
--------------0-----0-----|--------------------------|
-----------------3-----3--|--L-----------0-----------|
--L-----0-----------0-----|-----------------2--0--2--|
-----2--------------------|--------0-----------0-----|
--3--------3--3-----------|-----2--------------------|
--------------------------|--5--------5--5-----------|


  E  E  E  E  E  E  E  E     E  E  E  E  E  E  E  E   
--------------------------|--------------------------|
--------------0-----1--0--|--L-----------------------|
--L-----------0-----2--0--|--------------0-----2-----|
--------4-----------------|--------2-----------------|
-----0-----0-----0--------|-----2-----2-----2-----2--|
--0-----------------------|--2-----------2-----------|


  E  E  E  E  E  E  E  E     E  E  E  E  E  E  E  E     E  E  E  E  H         
--------------------------|--------------------------|-----------------------|
--------------------------|--------------------------|-----------------------|
--------------0-----2-----|-----0--------------------|-----0-----------------|
--------2-----------------|--------0--3--L--------0--|--------0--3--L--------|
-----2-----2-----2-----2--|-----------------3--L-----|-----------------------|
--2-----------2-----------|--5-----------------------|--5--------------------|


  E  E  E  E  E  E  E  E     W                  
--------------------------|-------------------||
--------------------------|-------------------||
-----0-----------------0--|--L----------------||
--------0--3--L--------0--|--L----------------||
-----------------3--L-----|-------------------||
--5--------------------5--|--L----------------||




Duration Legend
---------------
W - whole
H - half
Q - quarter
E - 8th
S - 16th
T - 32nd
X - 64th
. - note dotted
|-n-|  - n-tuplets


Tablature Legend
----------------
L - tied note
x - dead note
g - grace note
(n) - ghost note
> - accentuded note
NH - natural harmonic
AH - artificial harmonic
TH - tapped harmonic
SH - semi harmonic
PH - pitch harmonic
h - hammer on
p - pull off
b - bend
br - bendRelease
pb - preBend
pbr - preBendRelease
brb - bendReleaseBend
\n/ - tremolo bar dip
\n - tremolo bar dive
-/n - tremolo bar Release up
/n\ - tremolo bar inverted dip
/n - tremolo bar return
-\n - tremolo bar Release down
S - shift slide
s - legato slide
/ -  slide into from below or out of upwards
\ -  slide into from above or out of downwards
~ - vibrato
W - wide vibrato
tr - trill
TP - tremolo picking
T - tapping
S - slap
P - pop
< - fade in
^ - brush up
v - brush down
Login or Register to remove this ad.

1 comment on All That I Needed Was You

Fantastic!

Fantastic!