Ads

Hippo (Mother 3) Guitar Tab

Submitted: Jan 05, 2014 by joosh

5
Average: 5 (1 vote)
Download | Listen
Game: Mother 3
Composer(s): Shogo Sakai
Style: Arrangement, Fingerstyle

AutoScroll: Slow | Medium | Fast
Hippo
Mother 3
Composer: Shōgo Sakai
Tabber: joosh

Standard Tuning

                                   |--3-|  |--3--|
     H      H       H      H       H    E  E  E  E  H
E |--------------|--------------|-------0--1--3--5--3L----|
B |--------------|--------------|-------------------------|
G |--------------|--------------|-------------------------|
D |--------------|--------------|-------------------------|
A |--3-----------|--3-----------|--3----------------------|
E |---------3----|---------3----|-------------------3-----|


       |--3--|  |--3--|      |--3--|
  Q    E  E  E  H     Q      E  E  E  Q      H
-------7--8--5--3-----1---|--0--1--0---------------|
--------------------------|-----------1------------|
--------------------------|------------------0L----|
--------------------------|------------------------|
--------------------------|--3---------------------|
--8-------------3---------|------------------3-----|


                 |--3-|  |--3--|                |--3--|  |--3--| 
  H      H       H    E  E  E  E  H        Q    E  E  E  H     Q   
--------------|-------0--1--3--5--3L----|-------7--8--5--3-----1---|
--------------|-------------------------|--------------------------|
--------------|-------------------------|--------------------------|
--------------|-------------------------|--------------------------|
--3-----------|--3----------------------|--------------------------|
---------3----|-------------------3-----|--8-------------3---------|


  |--3--|                                 |--3--|   |--3--|
  E  E  E  Q      H        H      H       H     Q   H     Q
--0--1--0---------------|--------------|-----------------------|
-----------1L-----------|--------------|------4g5---2-----0----|
------------------------|--------------|-----------------------|
------------------------|--------------|------------4----------|
--3---------------------|--3-----------|--0--------------------|
------------------3-----|---------3----|-----------------------|


  |--3--|           |--3--|   |--3--|       |--3--|
  H     Q   H       H     Q   H     Q       H     Q   H
-----------------|------1g2--------------|------1g2--------|
--2---4g5--------|------------3-----0----|--3--------------|
-----------------|-----------------------|-----------------|
------------4----|------------2----------|------------2----|
--0--------------|--2--------------------|--2--------------|
-----------------|-----------------------|-----------------|


  |--3--|  |--3--|  |--3--|  |--3--|     |--3--|  |--3--|  |--3--|  |--3--|
  E  E  E  E  E  E  E  E  E  E  E  E     E  E  E  E  E  E  E  E  E  E  E  E  
--3--5--3--2--0-----0--2--0-----------|--2--3--2--0--------------------------|
-----------------3-----------3--2-----|--------------3--2--2--3--2--0--------|
-----------------------------------2--|--------------------------------2-----|
--2-----------------------------------|--0--------------------------------2--|
--------------------0-----------------|-----------------------------0--------|
--------------------------------------|--------------------3-----------------|


  |--3--|  |-3-|      |--3--|  |-3-|      |--3-|  |--3--|  |-3-|
  Q  Q  Q  Q   H      Q  Q  Q  Q   H      H    E  E  E  E  Q   H
-------------------|-------------------|-------0--1--3--5--3L------|
-----1-------------|-----1-------------|-------1-------------------|
--------2------0---|--------2------0---|-------------2---------0---|
-------------------|-------------------|---------------------------|
--3----------------|--3----------------|--3------------------------|
-----------3-------|-----------3-------|-------------------3-------|


  |--3-|  |--3--|  |--3--|      |--3--|  |3-|   |-3-| 
  Q    E  E  E  E  H     Q      E  E  E  E  Q   Q   H
----------7--8--5--3-----1---|--0--1--0-----------------|
-----------------------------|--------1--1--------------|
-------5--------------0------|--------------2---0---0---|
-------------7---------------|--------------------------|
--3--------------------------|--3-----------------------|
-------------------3---------|------------------3-------|


  |--3--|  |-3-|      |--3-|  |--3--|  |-3-|                  
  Q  Q  Q  Q   H      H    E  E  E  E  Q   H 
-------------------|-------0--1--3--5--3L------|
-----1-------------|-------1-------------------|
--------2------0---|-------------2---------0---|
-------------------|---------------------------|
--3----------------|--3------------------------|
-----------3-------|-------------------3-------|


  |--3-|  |--3--|  |--3--|      |--3--|  |3-|   |-3-|
  Q    E  E  E  E  H     Q      E  E  E  E  Q   Q   H
----------7--8--5--3-----1---|--0--1--0-----------------|
-----------------------------|--------1--1L-------------|
-------5--------------0------|--------------2-------0---|
-------------7---------------|--------------------------|
--3--------------------------|--3-----------------------|
-------------------3---------|------------------3-------|


  |--3--|  |-3-|      |--3--|   |--3--|       |--3--| 
  Q  Q  Q  Q   H      H     Q   H     Q       H     Q   H 
-------------------|-----------------------|-----------------|
-----1-------------|------4g5---2-----0----|--2---4g5--------|
--------2------0---|-----------------------|-----------------|
-------------------|------------4----------|------------4----|
--3----------------|--0--------------------|--0--------------|
-----------3-------|-----------------------|-----------------|


  |--3--|   |--3--|       |--3--|
  H     Q   H     Q       H     Q   H
------1g2--------------|------1g2--------|
------------3-----0----|--3--------------|
-----------------------|-----------------|
------------2----------|------------2----|
--2--------------------|--2--------------|
-----------------------|-----------------|


  |--3--|  |--3--|  |--3--|  |--3--|     |--3--|  |--3--|  |--3--|  |--3--|
  E  E  E  E  E  E  E  E  E  E  E  E     E  E  E  E  E  E  E  E  E  E  E  E  
--3--5--3--2--0-----0--2--0-----------|--2--3--2--0--------------------------|
-----------------3-----------3--2-----|--------------3--2--2--3--2--0--------|
-----------------------------------2--|--------------------------------2-----|
--2-----------------------------------|--0--------------------------------2--|
-----------2--------0--------2--------|-----------0-----------------0--------|
--------------------------------------|--------------------3-----------------|


  |--3--|  |--3--|  |--3--|  |--3--|     ^
  E  E  E  E  E  E  E  E  E  E  E  E     W  
--------------------------------------|-----------------|
--1--3--1--0-----------0--------------|--1--------------|
--------------2--0--2-----2--0--------|--0--------------|
--------------------------------3--2--|--2--------------|
--3-----------------------------------|--3--------------|
-----------3--------1--------3--------|--3--------------|




Duration Legend
---------------
W - whole
H - half
Q - quarter
E - 8th
|-n-|  - n-tuplets

Tablature Legend
----------------
L - tied note
^ - brush up







Login or Register to remove this ad.