Ads

Flowers (Mother 3) Guitar Tab

Submitted: May 15, 2009 by auriplane (Last updated: Feb 03, 2010)

5
Average: 5 (2 votes)
Download | Listen
Game: Mother 3
Composer(s): Shogo Sakai
Style: Arrangement, Fingerstyle, Transcription

AutoScroll: Slow | Medium | Fast
                        Mother 3i - Flowers GUITAR TAB
                             Song by Shogo Sakai

                   Tabbed by auriplane ([email protected])
                               On May 15, 2009


This is an attempt at transcribing Flowers from the album Mother 3i 
for acoustic guitar.  So it's not really an arrangement because I tried 
to get as close as possible to the original notes.  Let me know if you 
think I goofed anywhere :-)

Capo on 3.

    Part A

e |----------------|----------------|
B |----0-2---------|----0-2---------|
G |--2-------------|--2-------------|
D |2---------------|2---------------|
A |0---------------|0---------------|
E |----------------|----------------|

e |------0-----5-8-|7---3---0-------|5-3-1---------5-|4-0---0---------|
B |--0-2---6-8-----|----------------|------5-3-5-6---|----3---2-----0-|
G |2---------------|----------------|----------------|--------2---2---| x2
D |--------0-------|--------------2-|----------------|----------2-----|
A |4---------------|----2---3---3---|----------------|--------0-------|
E |----------------|3---------3-----|1-------3-------|0---------------|

e |1-----1-1---3---|0-------3-------|------------0---|--------0-------|
B |----1-------0---|------3---------|3-----3-3-------|2-----0---------|
G |--2-------0-----|----4-----------|----2-------1---|----1-----------|
D |0-------------3-|--5-------------|--3-------2---2-|--2-------------|
A |----------------|3---------------|2---------------|0---------------|
E |--------3-------|----------------|--------0-------|----------------|

e |2-----2-2---4---|0-----0-0---2---|----------------|--------4-------|
B |------------1---|----0---2-------|3-----3-3-----3-|3-----0---------|
G |----------1-----|--1---------3---|----2-------2---|----1-----------|
D |1-------------4-|----------4---2-|--4-------3-----|--2-------------|
A |--1-4-----------|4---------------|2-------1-------|----------------|
E |--------4-------|--------2-------|----------------|0---------------|

    Part B

e |----------------|----------------|
B |------3---------|------3---------|
G |----5-----------|----5-----------|
D |--5-------------|--5-------------|
A |3---------------|3---------------|
E |----------------|----------------|

e |0-------1-3---1-|0-------3-1-----|0-------1-3---1-|0---------------|
B |----1-----------|----1-------1-3-|----1-----------|----1-------1---|
G |--0---------3---|--0---------1---|--0---------3---|--0-------0-----|
D |----------3-----|----------1-----|----------3-----|----------------|
A |3-------1-------|3---------------|3-------1-------|3-------2-------|
E |----------------|--------4-------|----------------|----------------|

e |0-------7-----8-|0-------5-------|1-----5-5-3-3---|3-------------0-|
B |----1-----------|----1-----------|----3---------6-|------3-2---3---|
G |------------5---|------------5---|--2---------4---|----0-----2-4---|
D |--2-------------|--2-------2-----|0---------5-----|--0-------------|
A |0---------7-----|----------------|----------------|--------0-------|
E |--------4-------|3-------2-------|--------3-------|0---------------|

e |1-------1-------|0---------------|----------------------------|
B |----3-------2---|------3---------|------3---------------------|
G |--2-------1-----|----5-----------|----5--------------------2h4|
D |0---------------|--5-------------|--5---------------0h2h4h6---|
A |--------4-------|3---------------|3------------0h2h4----------|
E |----------------|----------------|----------------------------|

    Part C

e |--2-------------|--2-------------|--------0-----44|--77----------------------|
B |2---2-----------|2---2-----------|0-----------5555|5599----------------------|
G |2-----2---------|2-----2---------|1-----------66--|66---------------------2h4|
D |4---------------|4---------------|2-----2---------|----------------0h2h4h6---|
A |5---------------|5---------------|4---------------|-----------0h2h4----------|
E |----------------|----------------|----------------|--------------------------|

e |--2-------------|--2-------------|--------0-----44|--77------------|
B |2-2-2-----------|2-2-2-----------|0-------0---5555|5599------------|
G |2---2-2---------|2---2-2---------|1-----1-----66--|66--------------|
D |4-----4---------|4-----4---------|2-----2---------|----------------|
A |5---------------|5---------------|4---------------|----------------|
E |----------------|----------------|----------------|----------------|

e |0---------------|-----------4--2-|7-----------5---2g4--------------|
B |2-----3-2-----3-|2---0---2-------|7---------------|2-----5-2-------|
G |2---------------|1-------1-------|6---------------|2---------------|
D |4---------------|0-------0-------|4---------------|2---------------|
A |2---------------|2-------2-------|----------------|0---------------|
E |----------------|0-------0-------|----------------|----------------|

    Part D   (Repeat twice)

e |----------------|-----------0----|----------------|0---------------|
B |2---------------|3-------------3-|2-------------2-|3---3---------0-|
G |2---------------|4---------------|2-----------2---|0---------2-----|
D |0---------------|5---------------|4-------4-6-----|0---------0-----|
A |0---------------|5---------------|4-----4---------|2---------0-----|
E |----------------|3---------------|2---------------|3---------3-----|

e |--------2-------|4-------5---7---|9---------------|----------------|
B |2---------------|6---------------|10----------10--|7---------------|
G |2---------------|6---------------|11--------------|8---------------|
D |4---------------|3---------------|----------------|9---------------|
A |4---------------|----------------|7---------------|6---------------|
E |2---------------|----------------|----------------|----------------|

e |------------2---|2---0---0-------|0---------------|----------------|
B |3---------------|3-------3---3---|2---------------|------------2---|
G |2---------------|4-------4-------|4-----------4---|3-------4-------|
D |0---------------|2-------0-------|------------2---|2---------------|
A |2---------------|----------------|4-----------2---|4---------------|
E |----------------|----------------|----------------|2---------------|

e |----------------|----------------|----------------|----------------|
B |3---------------|3---------------|2-----------0--2|----------------|
G |2---------------|2---------------|1-------1-2-----|----------------|
D |4---------------|3---------------|2-----2---------|----------------|
A |2---------------|1---------------|0---------------|----------------|
E |----------------|----------------|----------------|----------------|
Login or Register to remove this ad.

1 comment on Flowers

Awesome transcription work

12.75

Awesome transcription work auriplane. Great job.