Ads

Fate (Mother 3) Guitar Tab

Submitted: Oct 27, 2011 by LynyrdSkynyrd4

4.8
Average: 4.8 (5 votes)
Download | Listen
Game: Mother 3
Composer(s): Shogo Sakai
Style: 2 or more instruments, Transcription

This song is also called Serious

AutoScroll: Slow | Medium | Fast
e]----------------------------------------------------------------------------------------
B]----------------------------------------------------------------------------------------
G]-----5h7p5--------------------0h3h5p3---------7h8p7p5---5h7p5----------------0h3h5p3----
D]-----------5~~~~~--------1h3----------6~~~~-----------5-------5~~~-------1h3---------6--
A]--------------------1h3----------------------------------------------1h3----------------
E]----------------------------------------------------------------------------------------

                                    
   Guitar 1                            (Harmony  part)
  ----------------------------------------------------------------------------------------
  ----------------------------------------------------------------------------------------
  -----7-8-7-5----------------------------------5-7-8--8--7---4-5---8--8--7---4-5---------
  -------------8-6-5----------5~---8-6---5h6h8--------------------------------------------
  -------------------8~---6h8-------------------------------------------------------------
  ----------------------------------------------------------------------------------------
   
   Guitar 2
  ----------------------------------------------------------------------------------------
  -----6-8-6--------------------------------------6-8--8--6---------8--8--6---------------
  -----------8-7-5-----------------7-5-----5-7--8-------------7-8-------------7-8---------
  -----------------8-6----5h6h8----------8------------------------------------------------
  ----------------------------------------------------------------------------------------
  ----------------------------------------------------------------------------------------
Login or Register to remove this ad.

3 comments on Fate

This is good stuff. All the

5

This is good stuff. All the notes are perfect.

Awesome!

5

My favorite Mother 3 song so far, thanks for the tab! :D

Hard?

4

I wanted to print this out but it looks very complicated. Is it really that hard?