Alec's Log House (Mother 3) Bass/Guitar Tab

Submitted: Jul 06, 2015 by hslesperance

0
Download | Listen
Game: Mother 3
Composer(s): Shogo Sakai
Style: 2 or more instruments, Transcription

AutoScroll: Slow | Medium | Fast
Alec's Log House
Mother 3
Composed by Shogo Sakai
Tabbed by hslesperance
7/6/15

Standard Tuning


Guitar 1

  W               W               H     E E E E   Q.    S S H
|---------------|---------------|---------------|--------------------|
|---------------|---------------|---------9-8-9-|-8-----8p7p6--------|
|---------------|---------------|---------------|--------------------|
|---------------|---------------|---------------|--------------------|
|---------------|---------------|---------------|--------------------|
|---------------|---------------|---------------|--------------------|


  H.          Q      Q.     E  +H           +H      E  E  E  E    Q  Q   Q   Q
|-----------------|-10-----11-(11)-------|-(11)-------11-10-11-|-10--8------------|
|-8----------11---|----------------------|---------------------|--------11---9----|
|-----------------|----------------------|---------------------|------------------|
|-----------------|----------------------|---------------------|------------------|
|-----------------|----------------------|---------------------|------------------|
|-----------------|----------------------|---------------------|------------------|


  W               +W                H     E  E  E  E    Q.     S  S H
|---------------|-----------------|------------------|----------------------|
|-8-------------|-(8)-------------|---------12-11-12-|-11-----11p10p9-------|
|---------------|-----------------|------------------|----------------------|
|---------------|-----------------|------------------|----------------------|
|---------------|-----------------|------------------|----------------------|
|---------------|-----------------|------------------|----------------------|


  H.          Q      Q.    E +H          +H      E  E  E  E    Q  Q   Q   Q
|-9---------------|--------------------|-----------11-10-11-|-10--8------------|
|-----------------|--------------------|--------------------|--------11---9----|
|------------10---|-10-----8-(8)-------|-(8)----------------|------------------|
|-----------------|--------------------|--------------------|------------------|
|-----------------|--------------------|--------------------|------------------|
|-----------------|--------------------|--------------------|------------------|

                   |-3-|                  |-3-|                    |-3-|                  |-3-|
   H.          +E  S S S   H.         +E  S S S    H.          +E  S S S   H.         +E  S S S
|-10----------(10)-9p8p7p|-6----------(6)-7h8h9h|-10----------(10)-9p8p7p|-6----------(6)-7h8h9h|
|------------------------|----------------------|------------------------|----------------------|
|------------------------|----------------------|------------------------|----------------------|
|------------------------|----------------------|------------------------|----------------------|
|------------------------|----------------------|------------------------|----------------------|
|------------------------|----------------------|------------------------|----------------------|

                  |-3-|               |-3-|                   |-3-|
   q   q   q    E S S S   q  q  q   E S S S    q   q   q    E S S S   q  q  q   q
|-10--10--10---10-9p8p7p|-6--6--6---6-7h8h9h|-10--10--10---10-9p8p7p|-6--6--6---6-----*|
|-----------------------|-------------------|-----------------------|-----------------*|
|-----------------------|-------------------|-----------------------|-----------------*|
|-----------------------|-------------------|-----------------------|-----------------*|
|-----------------------|-------------------|-----------------------|-----------------*|
|-----------------------|-------------------|-----------------------|-----------------*|




Guitar 2

  Q  Q  E E E E   Q  Q  E E E E   Q  Q  E E E E   Q  Q  E E E E
|---------------|---------------|---------------|---------------|
|----4--4-4-4-4-|----4--4-4-4-4-|----6--6-6-6-6-|----3--3-3-3-3-|
|----3--3-3-3-3-|----3--3-3-3-3-|----5--5-5-5-5-|----1--1-1-1-1-|
|----5--5-5-5-5-|----5--5-5-5-5-|----3--3-3-3-3-|----0--0-0-0-0-|
|---------------|---------------|---------------|---------------|
|---------------|---------------|---------------|---------------|


  Q  Q  E E E E   Q  Q  E E E E   Q  Q  E E E E   Q  Q  E E E E
|---------------|---------------|---------------|---------------|
|----4--4-4-4-4-|----4--4-4-4-4-|----6--6-6-6-6-|----3--3-3-3-3-|
|----3--3-3-3-3-|----5--5-5-5-5-|----5--5-5-5-5-|----3--3-3-3-3-|
|----5--5-5-5-5-|----6--6-6-6-6-|----3--3-3-3-3-|----0--0-0-0-0-|
|---------------|---------------|---------------|---------------|
|---------------|---------------|---------------|---------------|


  Q  Q  E E E E   Q  Q  E E E E   Q  Q  E E E E   Q  Q  E E E E
|---------------|---------------|----4--4-4-4-4-|---------------|
|----4--4-4-4-4-|----4--4-4-4-4-|----4--4-4-4-4-|----6--6-6-6-6-|
|----3--3-3-3-3-|----3--3-3-3-3-|----4--4-4-4-4-|----4--4-4-4-4-|
|----5--5-5-5-5-|----5--5-5-5-5-|----6--6-6-6-6-|----6--6-6-6-6-|
|---------------|---------------|---------------|----4--4-4-4-4-|
|---------------|---------------|---------------|---------------|


  Q  Q  E E E E   Q  Q  E E E E   Q  Q  E E E E   Q  Q  E E E E
|----2--2-2-2-2-|----2--2-2-2-2-|---------------|----1--1-1-1-1-|
|----2--2-2-2-2-|----4--4-4-4-4-|----6--6-6-6-6-|----3--3-3-3-3-|
|----3--3-3-3-3-|----4--4-4-4-4-|----5--5-5-5-5-|----3--3-3-3-3-|
|----4--4-4-4-4-|----4--4-4-4-4-|----3--3-3-3-3-|---------------|
|---------------|---------------|---------------|---------------|
|---------------|---------------|---------------|---------------|


  Q  Q  E E E E   Q  Q  E E E E   Q  Q  E E E E   Q  Q  E E E E
|---------------|---------------|---------------|---------------|
|----4--4-4-4-4-|----4--4-4-4-4-|----4--4-4-4-4-|----4--4-4-4-4-|
|----3--3-3-3-3-|----3--3-3-3-3-|----3--3-3-3-3-|----3--3-3-3-3-|
|----5--5-5-5-5-|----5--5-5-5-5-|----5--5-5-5-5-|----5--5-5-5-5-|
|---------------|---------------|---------------|---------------|
|---------------|---------------|---------------|---------------|


  Q  Q  E E E E   Q  Q  E E E E   Q  Q  E E E E   Q  Q  E E E E
|---------------|---------------|---------------|---------------*|
|----4--4-4-4-4-|----4--4-4-4-4-|----4--4-4-4-4-|----4--4-4-4-4-*|
|----3--3-3-3-3-|----3--3-3-3-3-|----3--3-3-3-3-|----3--3-3-3-3-*|
|----5--5-5-5-5-|----5--5-5-5-5-|----5--5-5-5-5-|----5--5-5-5-5-*|
|---------------|---------------|---------------|---------------*|
|---------------|---------------|---------------|---------------*|




Bass

  W          W          W          H    H
|----------|----------|----------|-3----3----|
|-1--------|-1--------|-3--------|-----------|
|----------|----------|----------|-----------|
|----------|----------|----------|-----------|


  W          W          W          H    H
|----------|-1--------|----------|-3----3----|
|-1--------|----------|-3--------|-----------|
|----------|----------|----------|-----------|
|----------|----------|----------|-----------|


  W          W          H.      Q    H    H
|----------|----------|-1-------1--|-6----6----|
|-1--------|-1--------|------------|-----------|
|----------|----------|------------|-----------|
|----------|----------|------------|-----------|


  H.      Q    H    H      H.      Q    H    H
|------------|-4----4----|------------|-3----3----|
|-4-------4--|-----------|-3-------3--|-----------|
|------------|-----------|------------|-----------|
|------------|-----------|------------|-----------|


  W          W          W          W
|----------|----------|----------|------|
|-1--------|-1--------|-1--------|-1----|
|----------|----------|----------|------|
|----------|----------|----------|------|


  W          W          W          W
|----------|----------|----------|------*|
|-1--------|-1--------|-1--------|-1----*|
|----------|----------|----------|------*|
|----------|----------|----------|------*|

W - whole
H - half
Q - quarter
E - 8th
S - 16th
a - acciaccatura
+ - note tied to previous
. - note dotted

Uncapitalized letters represent notes that are staccato (1/2 duration)
Irregular groupings are notated above the duration line
Login or Register to remove this ad.