Ads

Wasteland (Arcade) (Mortal Kombat II) Guitar Tab

Submitted: Jan 18, 2010 by LTRobson (Last updated: Jan 25, 2010)

0
Download | Listen
Game: Mortal Kombat II
Composer(s): Dan Forden
Style: Transcription
Series: Mortal Kombat

AutoScroll: Slow | Medium | Fast
Mortal Kombat II - Wasteland (Arcade)
Tabbed by LTRobson Jan 2010

Standard tuning

Intro               This section is repeated a few times                  
|------------------|-------------------------------------------------------------------|
|-/15~------\-/14~-|---------------------------13p10-12~--------/12~-----\-/13~----\---|
|------------------|-----10--12----10h12-13------------------------------------------2-|
|------------------|-12--------------------------------------------------------------0-|
|------------------|-----------------------------------------------------------------0-|
|------------------|-------------------------------------------------------------------|

Ending with
|---------------------------------13~-|
|---------------------12----15p12-----|
|-----10--12----13h10-----------------|
|-12----------------------------------|
|-------------------------------------|
|-------------------------------------|
Login or Register to remove this ad.