Character Selection Screen (Genesis) (Mortal Kombat II) Guitar Tab

Submitted: Jan 19, 2010 by LTRobson (Last updated: Jan 25, 2010)

5
Average: 5 (1 vote)
Download | Listen
Game: Mortal Kombat II
Composer(s): Dan Forden
Style: Alternate picking, Arrangement, Fingerstyle, Transcription
Series: Mortal Kombat

AutoScroll: Slow | Medium | Fast
Mortal Kombat II - Character Select Screen (Mega Drive)
Tabbed by LTRobson Jan 2010

Standard tuning
   
|--------------------------------------------9-7------------|
|---------8~---------------8---------------------8------11~-|
|-----7-9--------------7-9---9-7----------------------9-----|
|-9-8--------------9-8-----------9-8~-----------------------|
|-----------------------------------------------------------|
|-----------------------------------------------------------|

Thanks to auriplane, here's an arrangement made using her bass timings.

 >       >       >           >            >       >
|--------------------------------|--------------------------------|
|--------------------------------|8-------------------------------| 
|------------------------7---9---|--------------------------------|
|----------------9---8-----------|--------------------------------|
|7---7---7---7---7---7---7---7---|7---7---7---7---7---7---7---7---|
|--------------------------------|--------------------------------|

 >       >       >           >           >
|-------------------------------|----------|
|-------------------------------|8---------|
|------------------------7---9--|----9p7---|
|----------------9---8----------|--------9-|
|7---7---7---7---7---7---7---7--|7---7---7-|
|-------------------------------|----------|

 >       >       >           >            >       >
|----------------------------9p7-|--------------------------------|
|--------------------------------|8-----------11------------------|
|--------------------------------|--------9-----------------------|
|8-------------------------------|--------------------------------|
|9---9---9---9---9---9---9---9---|9---9---9---10--10--10--10--10--|
|--------------------------------|--------------------------------|
Login or Register to remove this ad.

3 comments on Character Selection Screen (Genesis)

dead on

5

another great one

The rhythm on the bass is

The rhythm on the bass is like this:

  First four measures:

  8x E
  8x E
  8x E
  3x E  <--  fourth measure is cut short

  Last two measures:

  8x F# 
  3x F#
  5x G

I'll make a bass tab to go with this

Thanks both ;)

Thanks both ;)