The Subway (Arcade) (Mortal Kombat 3) Guitar Tab

Submitted: Feb 12, 2010 by LTRobson (Last updated: Feb 13, 2010)

0
Download | Listen
Game: Mortal Kombat 3
Composer(s): Dan Forden
Style: Alternate picking, Transcription
Series: Mortal Kombat

AutoScroll: Slow | Medium | Fast
 Mortal Kombat 3 - The Subway (Arcade)
 Tabbed by LTRobson 12/02/10

 Standard tuning

 Intro           
 ---------------------|---------------------
 ---------------------|--------------------- * are beats
 ---------------------|---------------------
 -5-------------------|-----------\--------- pick slide 
 -3----*----*----*----|-*----*----\----*---- across two strings
 ---------------------|---------------------

 Bass for guitar
 ---------------|-------------------|---------------|-------------------
 ---------------|-------------------|---------------|-------------------
 -------5-7-----|-8---------------7-|-------5-7-----|-8---7-----5-------
 ---------------|-----5-7---8-------|---------------|-------5---------5-
 -5-5---------6-|-------------6-----|-5-5---------6-|-------------6-----
 ---------------|-------------------|---------------|-------------------
 Four times

 Then guitar enters
 ----------------------------------------------------------------------
 -15/13-12---13---15---18---16-\-12---13---15----------------------\---
 ----------------------------------------------------------------------
 ----------------------------------------------------------------------
 ----------------------------------------------------------------------
 ----------------------------------------------------------------------

 ------------------------whammy shake-(notcounted)---------------------
 -12---13----------------(12)(13)(12)(13)(12)(13)(12)(13)(12)(13)--\---
 ----------------------------------------------------------------------
 ----------------------------------------------------------------------
 ----------------------------------------------------------------------
 ----------------------------------------------------------------------

 -------------------------------------14-------------------------------
 -15/13-12---13---15---18---16-\-13------------------------------------
 ----------------------------------------------------------------------
 ----------------------------------------------------------------------
 ----------------------------------------------------------------------
 ----------------------------------------------------------------------
                                        bend / release
 -14-13----------------------------------------------------------------
 -------15---------------------------15-(17)---(15)-p13----13------\---
 -------------------------------------------------------14-------------
 ----------------------------------------------------------------------
 ----------------------------------------------------------------------
 ----------------------------------------------------------------------
 You can hear the slides, so I guess it's mainly played on the one string


 Tune ends with the bass playing Eb and the guitar playing an F
 -13----------
 -------------
 -------------
 -------------
 -6-----------
 -------------
Login or Register to remove this ad.