The Bridge (Arcade) (Mortal Kombat 3) Guitar Tab

Submitted: Feb 12, 2010 by LTRobson (Last updated: Feb 12, 2010)

0
Download | Listen
Game: Mortal Kombat 3
Composer(s): Dan Forden
Style: Alternate picking, Transcription
Series: Mortal Kombat

AutoScroll: Slow | Medium | Fast
 Mortal Kombat 3 - The Bridge (Arcade)
 Tabbed by LTRobson 12/02/10

 Standard tuning

 ------------------------------------------------------------------
 ------------------------------------------------------------------
 ---5-------------6-----------------5-------------6----------------
 ------------------------------------------------------------------
 -1-3-------------4---------------1-3-------------4----------------
 ------------------------------------------------------------------

 -------3--5---6------------------------3--5----6------------------
 -4--5----------------------------4--5-----------------------------
 ------------------------------------------------------------------
 ------------------------------------------------------------------
 ------------------------------------------------------------------
 ------------------------------------------------------------------

 -------8--6--h8p6----5-------------------
 -4--5-------------8------8-----------7---
 ----------------------------6-----8------
 -------------------------------7---------
 -----------------------------------------
 -----------------------------------------

 ---------------------------------
 ---------------------------------
 -5-------------6-----------------
 ---------------------------------
 -3-------------4-----------------
 ---------------------------------

 -------8--6--h8p6----5-------------------
 -4--5-------------8------8-----------7---
 ----------------------------6-----8------
 -------------------------------7---------
 -----------------------------------------
 -----------------------------------------

 -20-20-------------20-20-------------20-20-------------20-20-------------
 -19-19-------------19-19-------------19-19-------------19-19-------------
 -------------------------------------------------------------------------
 -------------------------------------------------------------------------
 -------------------------------------------------------------------------
 -------------------------------------------------------------------------

 The quick bit unerneath most of this is:
 -------------------------------- 
 -----------------4-----------4--
 -0-3-5-0-3-6-0-3---0-3-5-0-3----
 --------------------------------
 --------------------------------
 --------------------------------

 Very fast and there's a slight pause before playing again
Login or Register to remove this ad.