Ads

Goat Battle (Monster Rancher (Anime)) Guitar Tab

Submitted: Mar 27, 2021 by H.F. (Last updated: Apr 05, 2021)

0
Download | Listen
Game: Monster Rancher (Anime)
Composer(s): BMF
Style: Arrangement

AutoScroll: Slow | Medium | Fast
PDF available in "Listen" link.

Title: Goat Battle
Album: Monster Rancher 3
Music: Yutaka Fujishima,Saki Ishii,Atsuo Saito
Tabber: H.F.

Tempo = 63

Legend
h - hammer on/pull off


E ||-2-----------------2-----4-----------------4-------|
B ||----------3-----------------------5----------------|
G ||o------2-----------------------4-------------------|
D ||o--------------------------------------------------|
A ||-2-----------------------4-------------------------|
E ||---------------------------------------------------|


--2-----------------2-----0-----------------0-------|
-----------3-----------------------2----------------|
--------2-----------------------1-------------------|
----------------------------------------------------|
--2-----------------------0-------------------------|
----------------------------------------------------|


--2-----------------2--------------4----------------|
-----------3--------------5-----------------5-------|
--------2-----------------------4-------------------|
----------------------------------------------------|
--2-----------------------4-------------------------|
----------------------------------------------------|


--7-----------------7-----6-----------------6-------|
-----------7-----------------------5----------------|
-----------------7-----------------------6----------|
--5-----------------------4-------------------------|
----------------------------------------------------|
----------------------------------------------------|


--------------------------------------------2-------|
--------------------3--------------0----------------|
-----------2--------------2-------------------------|
--------4-------------------------------------------|
--2-------------------------------------------------|
----------------------------------------------------|


--0-----------------------0-------------------------|
-----------0--------3-----------3>----------0h------|
--------1--------------------------------------2----|
--2-------------------------------------------------|
----------------------------------------------------|
----------------------------------------------------|


--------------------------0-------------------------|
--------------------2--------------2----------------|
--1--------1--------------------1-----------1-------|
--------2-------------------------------------------|
--0-------------------------------------------------|
----------------------------------------------------|


--------------------------0-----------------0-------|
--------------------2-----------------2-------------|
-----------1--------------------1-------------------|
--------2-------------------------------------------|
--0-----------------------0-----------0-------------|
----------------------------------------------------|


--------------------------------------------2-------|
--------------------3--------------0----------------|
-----------2--------------2-------------------------|
--------4-------------------------------------------|
--2-------------------------------------------------|
----------------------------------------------------|


--0-----------------------0-------------------------|
-----------0--------3-----------3>----------2h-0----|
--------1-------------------------------------------|
--2-------------------------------------------------|
----------------------------------------------------|
----------------------------------------------------|


--------------------------0-------------------------|
--2-----------------2--------------2----------------|
-----------1--------------------1-----------1-------|
--------2-------------------------------------------|
--0-------------------------------------------------|
----------------------------------------------------|


--------------------------0-----------------0-------|
--------------------2-----------------2-------------|
-----------1--------------------1-------------------|
--------2-------------------------------------------|
--0-----------------------0-----------0-------------|
----------------------------------------------------|


--------------------------------------------2-------|
--------------------3--------------0----------------|
-----------2--------------2-------------------------|
--------4-------------------------------------------|
--2-------------------------------------------------|
----------------------------------------------------|


--0-----------------------0-------------------------|
-----------0--------3-----------3>----------0-------|
--------1--------------------------------------2----|
--2-------------------------------------------------|
----------------------------------------------------|
----------------------------------------------------|


--------------------------0-------------------------|
--------------------2-----------0>------------------|
--1--------1--------------------------------2-------|
--------2-------------------------------------------|
--0-------------------------------------------------|
----------------------------------------------------|


--------------------------0-----------------0-------|
--------------------2-----------------2-------------|
--1--------1--------------------1-------------------|
--------2-------------------------------------------|
--0-----------------------0-----------0-------------|
----------------------------------------------------|


--------------------------------------------2-------|
--------------------3--------------0----------------|
-----------2--------------2-------------------------|
--------4-------------------------------------------|
--2-------------------------------------------------|
----------------------------------------------------|


--0-----------------------0-------------------------|
-----------0--------3-----------3>----------0-------|
--------1-------------------------------------------|
--2-------------------------------------------------|
----------------------------------------------------|
----------------------------------------------------|


--------------------------0-------------------------|
--2-----------------2--------------2----------------|
-----------1--------------------1-----------1-------|
--------2-------------------------------------------|
--0-------------------------------------------------|
----------------------------------------------------|


----------------------------------------------------|
--------------------2-----2-----------4-------------|
-----------1----------------------------------------|
--------2-------------------------------------------|
--0-----------------------0-----------2-------------|
----------------------------------------------------|


--0-----------------0-----3--------0----------------|
-----------0--------------------------------0-------|
--------0-------------------------------------------|
----------------------------------------------------|
--3-------------------------------------------------|
----------------------------------------------------|


--------------------------0--------2--------3-------|
-----------0--------0>------------------------------|
--------0-------------------------------------------|
----------------------------------------------------|
--3-------------------------------------------------|
----------------------------------------------------|


--5-----------------------5-------------------------|
-----------5-----------------------5----------------|
--------5-----------5-----------------------5-------|
--3-------------------------------------------------|
----------------------------------------------------|
----------------------------------------------------|


--8-------------------------------------------------|
--------------------------10------------------------|
-----------5--------8--------------8----------------|
--------7-----------------------------------10------|
--8-----------------------8-----------8-------------|
----------------------------------------------------|


--------------------------7-----------------6h-5----|
----------------------------------------------------|
--------------------7--------------7----------------|
-----------7----------------------------------------|
--------9-------------------------------------------|
--7-------------------------------------------------|


--4-----------------------4-------------------------|
-----------0--------------------------------0-------|
--------------------7--------------7----------------|
--------6-------------------------------------------|
----------------------------------------------------|
--0-------------------------------------------------|


--4-----------------5-----------------0-------------|
--------------------------5-------------------------|
-----------6-----------------------6----------------|
--------6-----------------------6-------------------|
--0-------------------------------------------------|
----------------------------------------------------|


--------------------------0-----------------0------|||
--------------------2-----------------2------------|||
-----------1--------------------1-----------------o|||
--------2-----------------------------------------o|||
--0-----------------------0-----------0------------|||
---------------------------------------------------|||

Login or Register to remove this ad.