Ads

Main Theme (Monster Max) Guitar Tab

Submitted: May 21, 2010 by Rembrant

0
Download | Listen
Game: Monster Max
Composer(s): Dave Wise
Style: Transcription

AutoScroll: Slow | Medium | Fast
Monster Max - Main Theme 
Composed by David Wise.
Transcribed by Sam Eash.
Notes: This song is meant to sound like a rock song, play with an electric guitar, 
       try and use techniqueslike Palm Muting to get a good sound.

Intro:
e|------------|
B|------------|
G|------------|
D|-9-9--8-8--7|	
A|-7-7--6-6--5|
E|------------|

====================================
	
e|---------------------------------|
B|---------------------------------|
G|---------------------------------|
D|-----4-4--4-4-----------4-4--4-2-|  2x
A|0-1--2-2--2-2--0-2-0-2--2-2--2-0-|
E|---------------------------------|

e|---------------------------------------|
B|---------------------------------------|
G|---------------------------------------|
D|---------------------------------------|
A|---5-4-5-----5-4-5-----5-4-5--7--5-4---|
E|3---------5---------7----------------5-|

e|---------------------------------------|
B|---------------------------------------|
G|---------------------------------------|
D|---------------------------------------|
A|---5-4-5-----5-4-5--9-9-9-9-11-11-11-11|
E|3---------5---------7-7-7-7-9--9--9--9-|

======================================
Repeat last three measures and go on to:

e|--------------------------------------------|
B|--------------------------------------------|
G|--------------------------------------------|
D|------------7-----------9-----------7-7-----| 2x
A|9-9--7-9-7--5--9-7-9-7--7--9-7-9-7--5-5--7-7|
E|7-7--5-7-5-----7-5-7-5-----7-5-7-5-------5-5|

e|-------------------------------------------|
B|-------------------------------------------|
G|-------------------------------------------|
D|-------------------------------------------|
A|5-5--4-5-4--5-5--4-5-4--5-5--4-5-4--5-5-7-7|
E|3-3--2-3-2--3-3--2-3-2--3-3--2-3-2--3-3-5-5|

======================================
Repeat last two measures, then repeat the whole piece excluding the intro

Happy playing!
-Rembrant
Login or Register to remove this ad.